Search tabs and chords

Search for song, artist or band

Log in

One click and you are in

Login with Facebook Login with Google

Why sign up and log in

Guitar Tabs Explorer
Jd Mcpherson guitar tabs for Cryings just a thing you do

Guitar tabs

Solo:

For the solo you want to use an octave pedal at -1, some spring reverb and overdrive distortion.

e|---------------------------------------------------------------------------|
B|---------------------------------------------------------------------------|
G|------------------------------------------------------4-3-3-3-3-3----------|
D|--------------------------------------------------1-3----------------------|
A|----------------------------------------------2-3---------------------1----|
E|-13\1/5/13-13\1-1-1-4-1-4-1/5/13-13-13-13\1-4------------------------------|

e|---------------------------------------------------------------------------|
B|---------------------------------------------------------------------------|
G|---------------------------------------------------------------------------|
D|---------------------------------------------------------------------------|
A|-------------------------------------------------6b-----6-7-8---6----------|
E|-1-4-1/5/13-13-13\11-11-11\8-8-8-8-8-6-7-8-8-8-8----8-8-------8---8-4-1----|



************************************

| /  Slide up
| \  Slide down
| b  Bend

Other versions of Cryings Just A Thing You Do

Cryings just a thing you doChords

Almost there ...

Sign in to get your own page with links to favourite songs and more. You are just one click away...

Login with Facebook Login with Google