Log in

One click and you are in

Login with Facebook Login with Google

Why sign up and log in

Guitar Tabs Explorer
Don Mclean tabs for Vincent

Guitar tabs

Posted by: FRANCIS@gribb.hsr.no (Wilhelmsen, Lee F.     8-95 )


Notation symbols:

s : slide
h : hammer on
p : pull off

Have fun!
Vincent			Don McLean
--------


verse:

Starry, starry night...

  [Repeat twice each verse]
e|---------3-----3-------3-------0----------------------------------0---
b|---------0-----0-1-----1-0-----0--3---1p0-------1-0-----0-0h1---------
g|-----0h2-----0-------0-------0------0---------2-------2---------2-----
A chord diagramD MajorD|-0h2-------0-------0-------0----------------2-------2---------2-------
A chord diagramA augmentedA|------------------------------------------0-------0-------0-----------
A chord diagramE MajorE|---------3-------3-----3-3--------3---3-------------------------------
                                                        1 verse only
e|--------------------------------4p3--------3--------|-----------------
b|-0---1----------1-0-----0-----3-----3---3------0----|-1s3s1p0-0-------
g|---2---2------0-------0-----2---------2----------0--|---------0----0--
A chord diagramD MajorD|------------2-------2-----0------------------0------|-2s4s2p0----0----
A chord diagramA augmentedA|-0--------3-------3---------------------------------|-----------------
A chord diagramE MajorE|-------------------------------------------3--------|---------3-------

Chorus:
Now I understand...
e|------------------------0-2-----------2-------------------------------
b|-0-1-3-0--------0-1---3-------1-------3----------------------0---3----
g|-0------------2-----2-------2---2---2---2-0---0----------------0---0--
A chord diagramD MajorD|------------2-------------0-----------------0---4---4-2---2------2----
A chord diagramA augmentedA|---0-2----0-----------------------0---------------5-----2-------------
A chord diagramE MajorE|-3----------------------------------------3-----2-----0------0--------
                                             They would not listen, ...
e|-----------------------2-------2---------
b|-1-----1-0---0h1-------1-------3---------
g|-----0-----2-----2---2---2---2---2-------  pause
A chord diagramD MajorD|---2---------------0-------0-------------
A chord diagramA augmentedA|-0-------0-------------------------2-----
A chord diagramE MajorE|-----------------------------------0-----
                                       ** 1st chorus only.
e|----------0-----------0-2-----2---3-|-------2---0--------0------------
b|------2---2---2-1---1-----1---------|---0---------0--3----------------
g|------0-------0-----0-------2-------|-----0---0--------0--------------
A chord diagramD MajorD|----2---2---2-----2---2-0-----------|-0-------------------------------
A chord diagramA augmentedA|--0-------------0-------------------|---------------------------------
A chord diagramE MajorE|----------------------------------3-|-------3--------3----------------


Bridge:
For they could not love you...
e|-----------0-----0---2-------2-----------------------0----------------
b|-0-3-1-------3-----------1-------3---------0-------0------------------
g|---------2-----2---2---2---2---2-----0---0---0---0---------0----------
A chord diagramD MajorD|-------2-------------0-------------0---0-------0---------2---2--------
A chord diagramA augmentedA|-0-2-0-------0---------------0-------------------------2-------2------
A chord diagramE MajorE|-------------------------------------3-------2-------0----------------
               ..took your life like lovers often do...
e|--0------3------------------------------0-----------------------------
b|--1------4----------0-------0---------3-------------------------------
g|--0------5----------0-------2-------1---------------------------------
A chord diagramD MajorD|--2------5--------0---0---1---1---0--------(0)------------------------
A chord diagramA augmentedA|--0------3------------------------------------------------------------
A chord diagramE MajorE|----------------3-------1-------0-------------------------------------

But I could have told you Vincent...
e|-----------------------------------------0-2--3-----------------------
b|-------------1--------1-------0--------1----------0---1---0-------0---
g|-----2-------0--------0-------0------2--------------0---0---0-----0---
A chord diagramD MajorD|---2---2---2---2----2---2---2---2--0------------0-----2---0-----0---0-
A chord diagramA augmentedA|-0-------0--------3-------3-------------------------------------------
A chord diagramE MajorE|----------------------------------------------3---------------3-------

** end
e|-------2---0--------0-------------------------------3-----------------
b|---0---------0--3-------1---0-----------0-----0-----------------------
g|-----0---0--------0-------0---0-----0-2-----0-------------------------
A chord diagramD MajorD|-0------------------------------0-2-------0---------------------------
A chord diagramA augmentedA|----------------------------------------------------------------------
A chord diagramE MajorE|-------3--------3-------3---------------3-----------------------------


transcribed by:

Lee Francis Wilhelmsen
francis@GRIBB.hsr.no
francis@hsr.no

19(A chord diagramC majorC)94




Vincent van Gogh (1853-1890) Dutch Painter

Other versions of Vincent

VincentChords
Vincent starry starry nightChords
Vincent ukuleleChords

Almost there ...

Sign in to get your own page with links to favourite songs and more. You are just one click away...

Login with Facebook Login with Google