Log in

One click and you are in

Login with Facebook Login with Google

Why sign up and log in

Guitar Tabs Explorer
Don Mclean tabs for Empty chairs

Guitar tabs with lyrics

id AA10584; Sun, 20 Feb 94 10:43:33 +0100
	id AA22132; Sun, 20 Feb 94 09:43:31 GMT
	id AA01949; Sun, 20 Feb 94 09:43:30 GMT

>From FRANCIS@gribb.hsr.no (Wilhelmsen, Lee F.     8-95 )
Empty chairs		Don McLean
------------


Note: The 1st, 2nd and 3rd chorus and verse are not identical.


Intro:
e|---2p0--------------------------------------------------------------
b|-------3-1p0-1s3-5s7----5s7----5s7----------------------------------
g|-------------2s4-5s7----5s7----5s7----------------------------------
A chord diagramD MajorD|----------------------------------------0---------------------------
A chord diagramA augmentedA|--------------------------------------------------------------------
A chord diagramE MajorE|--------------------------------------------------------------------

1st verse:
I feel the trembling tingle of the sleepless night...
e|--------------0-------0----------0-----------0-2--------------------
b|--0---0---3-------------0--0h1-------------------------0-1---0------
g|--0---0-----0-------2-----2----2-----0-----2---------0-0-0---0------
A chord diagramD MajorD|----0---0---------2----------------2-----0---------0-------0--------
A chord diagramA augmentedA|----------------0----------------3----------------------------------
A chord diagramE MajorE|--3-------3--------------------------------------3------------------

e|-3---2---0-------------0------------0----------0-2------------------
b|-------------3-----------0---0h1-------------------------0-1---0----
g|---------------------2-----2-----2------0----2---------0-0-0---0----
A chord diagramD MajorD|---0---0---0---0---2------------------2----0---------0-------0------
A chord diagramA augmentedA|-----------------0------------------3-------------------------------
A chord diagramE MajorE|-3---3---3---3-------------------------------------3----------------

1st Chorus:
      And I wonder if you know...
e|---------2p0-----0---------------0-2---2---2---2---------3----------
b|-------0-----3-1-------0-0h1---3-------1-------1---0-------0-----0--
g|-----0---------------2-------2-------2---2---2---2-----0-------0----
A chord diagramD MajorD|---0---------------2---------------0-------0---------0-------0------
A chord diagramA augmentedA|-----------------0--------------------------------------------------
A chord diagramE MajorE|-3-------------------------------------------------3-------2--------
                           Until you did...
e|-0-------------------0-------------------------2--------------------
b|---------1---3-1-------------------------------1--------------------
g|-------0---0-------0---------0---------------2---2------------------
A chord diagramD MajorD|-----2-----------2---------2---------------0------------------------
A chord diagramA augmentedA|---2-----------0---------3------------------------------------------
A chord diagramE MajorE|-0------------------------------------------------------------------
  would...
e|-3-------2---0---------------0-----2p0------------------------------
b|-----0-----------1-----1-3-------------3-1p0-1s3-5s7--5s7--5s7------
g|-------0---0---0-----0-----0-----2-----------2s4-5s7--5s7--5s7------
A chord diagramD MajorD|---0---------------2-----------0----------------------------------0-
A chord diagramA augmentedA|-----------------0-------0------------------------------------------
A chord diagramE MajorE|-3-------3----------------------------------------------------------

2nd verse
Moonlight used to bath the contors of your face...
e|--------------0-------0----------0-----------0-2--------------------
b|--0---0---3-------------0--0h1-------------------------0-1---0------
g|--0---0-----0-------2-----2----2-----0-----2---------0-0-0---0------
A chord diagramD MajorD|----0---0---------2----------------2-----0---------0-------0--------
A chord diagramA augmentedA|----------------0----------------3----------------------------------
A chord diagramE MajorE|--3-------3--------------------------------------3------------------

e|-3---2---0---------------------------0---------2--------------------
b|-------------3---1---0-----------1-----1-----1---------0-1---0------
g|-------------------------2---0-----0-------2---------0-0-0---0------
A chord diagramD MajorD|---0---0---0---0---2---2---2---2---------0---------0-------0--------
A chord diagramA augmentedA|-----------------0---0---0---0---3----------------------------------
A chord diagramE MajorE|-3---3---3---3-----------------------------------3------------------

2nd Chorus:
      And I wonder if you know...
e|---------2p0-----0---------------0-2---2---2---2---------3----------
b|-------0-----3-1-------0-0h1---3-------1-------1---0-------0-----0--
g|-----0---------------2-------2-------2---2---2---2-----0-------0----
A chord diagramD MajorD|---0---------------2---------------0-------0---------0-------0------
A chord diagramA augmentedA|-----------------0--------------------------------------------------
A chord diagramE MajorE|-3-------------------------------------------------3-------2--------
                           Until you did...
e|-0-------------------0-------------------------2--------------------
b|---------1---3-1-------------------------------1--------------------
g|-------0---0-------0---------0---------------2---2------------------
A chord diagramD MajorD|-----2-----------2---------2---------------0------------------------
A chord diagramA augmentedA|---2-----------0---------3------------------------------------------
A chord diagramE MajorE|-0------------------------------------------------------------------
  would...               Never thought...
e|-3-------2---0-------0----------------------------------------------
b|-----0-----------3-------------3----------------------1-------0-----
g|-------0---0---0---0---0-----2-------0----------------0-------0-----
A chord diagramD MajorD|---0-----------------------0---------2--------------2---2---2---2---
A chord diagramA augmentedA|-----------------------------------2---------0h2--0-----------------
A chord diagramE MajorE|-3-------3-------3-------2-------0-----0h2h3--------------3---------

e|-------------------------------------------------0------------------
b|-------0-0h1---1---0-------0-------0-----0-1---3---1-------1------1-
g|-----2-------2---2-----0-------0-------0-----0-----0----2--0----0---
A chord diagramD MajorD|---0-----------------0---0---0---0---2-------------2--2----2--2-----
A chord diagramA augmentedA|---------------------------------------------------0-------3--------
A chord diagramE MajorE|-2-----------------3-------2-------0--------------------------------

e|-------0-0h2---------3-------2---0---------------0----2-2s0-0-------
b|-----1---------1---------0-----------1-----1-3--------3-3s1-1-3-3s1-
g|---2---------2---0---------0---0---0-----0-----0--------------4-4s2-
A chord diagramD MajorD|-0-------0-------------0---------------2-----------0----------------
A chord diagramA augmentedA|-------------------------------------0-------0----------------------
A chord diagramE MajorE|---------------------3-------3--------------------------------------

e|--------------------------------------------------------------------
b|-1-3----------------------------------------------------------------
g|-2-4----------------------------------------------------------------
A chord diagramD MajorD|--------0-----------------------------------------------------------
A chord diagramA augmentedA|--------------------------------------------------------------------
A chord diagramE MajorE|--------------------------------------------------------------------

3rd verse.
Morning comes and morning goes ...
e|--------------0-------0----------0-------------2--------------------
b|--0---0---3-------------0--0h1---------------1---------0-1---0------
g|--0---0-----0-------2-----2----2-----0-----2---------0-0-0---0------
A chord diagramD MajorD|----0---0---------2----------------2-----0---------0-------0--------
A chord diagramA augmentedA|----------------0----------------3----------------------------------
A chord diagramE MajorE|--3-------2--------------------------------------3------------------

e|-3---2---0---------------------------0-------0-2--------------------
b|-------------3---1---0-------0---1-----1-----1-----------0-1---0----
g|-------------------------2---------0-------2-----2-----0-0-0---0----
A chord diagramD MajorD|---0---0---0---0---2---2---2---2---------0-----------0-------0------
A chord diagramA augmentedA|-----------------0---0---0---0---3----------------------------------
A chord diagramE MajorE|-3---3---3---3-------------------------------------3----------------

3rd Chorus:
      And I wonder if you know...
e|---------2p0-----0---------------0-2---2---2---2---------3----------
b|-------0-----3-1-------0-0h1---3-------1-------1---0-------0-----0--
g|-----0---------------2-------2-------2---2---2---2-----0-------0----
A chord diagramD MajorD|---0---------------2---------------0-------0---------0-------0------
A chord diagramA augmentedA|-----------------0--------------------------------------------------
A chord diagramE MajorE|-3-------------------------------------------------3-------2--------
                           Until you did...
e|-0-------------------0-------------------------2--------------------
b|---------1---3-1-------------------------------1--------------------
g|-------0---0-------0---------0---------------2---2------------------
A chord diagramD MajorD|-----2-----------2---------2---------------0------------------------
A chord diagramA augmentedA|---2-----------0---------3------------------------------------------
A chord diagramE MajorE|-0------------------------------------------------------------------
  would...
e|-3-------2---0---------------0-----2p0------------------------------
b|-----0-----------1-----1-3-------------3-1p0-1s3-5s7--5s7--5s7------
g|-------0---0---0-----0-----0-----2-----------2s4-5s7--5s7--5s7------
A chord diagramD MajorD|---0---------------2-----------0------------------------------------
A chord diagramA augmentedA|-----------------0-------0------------------------------------------
A chord diagramE MajorE|-3-------3----------------------------------------------------------

e|-----------1--------------------------------------------------------
b|---------0----------------------------------------------------------
g|-------0------------------------------------------------------------
A chord diagramD MajorD|-----0--------------------------------------------------------------
A chord diagramA augmentedA|---2----------------------------------------------------------------
A chord diagramE MajorE|-3------------------------------------------------------------------

transcribed by:

Lee Francis Wilhelmsen
francis@GRIBB.hsr.no
francis@hsr.no

19(A chord diagramC majorC)94

Other versions of Empty Chairs

Empty chairsChords

Almost there ...

Sign in to get your own page with links to favourite songs and more. You are just one click away...

Login with Facebook Login with Google