Log in

One click and you are in

Login with Facebook Login with Google

Why sign up and log in

Guitar Tabs Explorer
Don Mclean tabs for Circus song

Guitar tabs with lyrics

Circus song/ don mclean

i tabbed this one from his live album SOLO, but on the album TAPESTRY
it sounded nearly the same. In my ears it sounds pretty good, but i not
so sure about the base part of it. I not so good at these things. I added the
lyrics, but i'm not a native born speaker of english.
Please correct me if i made some mistakes. I can learn of it.

Ronald staats, Utrecht, Holland       july 1995.
internet adres: r.staats@dit.azu.nl
e|--------------------3--5--7----------------0----------0---2-----2-
b|-3---2----0------0--5--7--8---8----0h2-3----3-2---3---3---3---3---
g|---2---2----0--2-----0--0---0---0-----0--0------0---2---2---2-----
A chord diagramD MajorD|-0------------------0--0--0--------0--------------0---0---0-------
A chord diagramA augmentedA|------------------------------------------------------------------
A chord diagramE MajorE|------------------------------------------------------------------
   cotton candy     two for a quarter, ....
your weight

 e|--------------------3--5--7----------------0------------2---
 b|-3---2----0------0--5--7--8---8----0h2-3----3-2---3---3---3-
 g|---2---2----0--2-----0--0---0---0-----0--0------0---2-------
 A chord diagramD MajorD|-0------------------0--0--0--------0--------------0-------0-
 A chord diagramA augmentedA|------------------------------------------------------------
 A chord diagramE MajorE|------------------------------------------------------------
  a big stuffed tiger, is what i bought ....


          A chord diagramG+G          A chord diagramA7A7           A chord diagramF minorFm            A chord diagramD7D7
 e|-------------3-------3---------------2---------2---
 b|-----------0------------2----------2-------------1-
 g|---------0---------2-------------2-----------2-----
 A chord diagramD MajorD|-------------------------------------------0-------
 A chord diagramA augmentedA|----------------0----------------------------------
 A chord diagramE MajorE|------3-----------------------2--------------------
   and everyone knows that ....

          A chord diagramG+G           A chord diagramA7A7            A chord diagramD MajorD           A chord diagramD7D7
 e|-------------3-------3---------------2---------2---
 b|-----------0------------2----------3-------------1-
 g|---------0---------2-------------2-----------2-----
 A chord diagramD MajorD|-------------------------------0-----------0-------
 A chord diagramA augmentedA|----------------0----------------------------------
 A chord diagramE MajorE|------3--------------------------------------------
     and everyone knows ....

         A chord diagramG+G            A chord diagramA7A7            A chord diagramD MajorD        A chord diagramB7B7
 e|-------------3-------3---------------2----2---------------------------
 b|-----------0------------2----------3------0---------------------------
 g|---------0---------2-------------2--------2---------------------------
 A chord diagramD MajorD|----------------------------------------------------------------------
 A chord diagramA augmentedA|----------------0--------------0----------2---------------------------
 A chord diagramE MajorE|------3---------------------------------------------------------------
   and I only laugh at the way ....

       A chord diagramE7E7       A chord diagramA augmentedA
 e|---0--0---------------------------------------------------------------
 b|---3--3------2--0-----------------------------------------------------
 g|---1--1------2----2--0------------------------------------------------
 A chord diagramD MajorD|-------------2--------------------------------------------------------
 A chord diagramA augmentedA|-------------0--------------------------------------------------------
 A chord diagramE MajorE|---0--0---------------------------------------------------------------
  but i'm so sick i just ...


 e|--------------------3--5--7----------------0-------------0h2----------
 b|-3---2----0------0--5--7--8---8----0h2-3----3-2---3----3-----3--------
 g|---2---2----0--2-----0--0---0---0-----0--0------0----2----------------
 A chord diagramD MajorD|-0------------------0--0--0--------0--------------0----------0--------
 A chord diagramA augmentedA|----------------------------------------------------------------------
 A chord diagramE MajorE|----------------------------------------------------------------------

Almost there ...

Sign in to get your own page with links to favourite songs and more. You are just one click away...

Login with Facebook Login with Google