Little Miss Valley by John Mclaughlin

Little Miss Valley tab by John Mclaughlin

Intro

-------------------------------------------------------------------------------
               Little Miss Valley - John McLaughlin
-------------------------------------------------------------------------------
Tabbed by: Vivek Ayer
Email: vrayer at gmail

Album: Tokyo Live (1994)

Intro:

    F

e|-4-------------------------------------------------------------------------|
B|-4-------------------------------------------------------------------------|
G|---------------------------------------------------------------------------|
D|---------------------0------------------------------0----------------------|
A|--3-------- 0---3--3-------0----3---------0---3---3------0-----------------|
E|--1--1-1-1----------------------1--1-1-1-----------------------------------|

    F

e|---------------------------------------------------------------------------|
B|---------------------------------------------------------------------------|
G|---------------------------------------------------------------------------|
D|---------------------0------------------------------0----------------------|
A|--3-------- 0---3--3-------0----3---------0---3---3------0-----------------|
E|--1--1-1-1----------------------1--1-1-1-----------------------------------|


  Bb

e|---------------------------------------------------------------------------|
B|---------------------------------------------------------------------------|
G|-----------------------0-----------------------------0---------------------|
D|--3----------0---3--3------0---3-----------0---3--3------0-----------------|
A|--1---1--1-1-------------------1--1--1--1----------------------------------|
E|---------------------------------------------------------------------------|


    F

e|---------------------------------------------------------------------------|
B|---------------------------------------------------------------------------|
G|---------------------------------------------------------------------------|
D|---------------------0------------------------------0----------------------|
A|--3-------- 0---3--3-------0----3---------0---3---3------0-----------------|
E|--1--1-1-1----------------------1--1-1-1-----------------------------------|


  C                  G    muted notes

e|---------------------------------------------------------------------------|
B|---------------------------------------------------------------------------|
G|-------------------------2-------------------------------------------------|
D|---5-----------2--5---5------2-----------------------------2---------------|
A|---3--3--3--3-------------------------5----------2---5--5------2-----------|
E|--------------------------------------3--3-3--3----------------------------|

  Bb                 C

e|---------------------------------------------------------------------------|
B|---------------------------------------------------------------------------|
G|---------------------------------------------------------------------------|
D|---3----------------------------------5------------------------------------|
A|---1-1--1-----------------------------3--3---3---3--3---3------------------|
E|---------------------------------------------------------------------------|


Melody:

    F
e|---5--4--5----4--5--4--5--6-----4--5---------------------------------------|
B|---------------------------------------6--4---8--6---4------4---6----------|
G|---------------------------------------------------------5-----------------|
D|---------------------------------------------------------------------------|
A|---------------------------------------------------------------------------|
E|---------------------------------------------------------------------------|

    Bb              -----fast-------

e|---4--3--4----3--4--6---3--4----3--4--3---1------------------------1-------|
B|----------------------------------------------1----------------------------|
G|--------------------------------------------------3----2--0--1/2-----------|
D|---------------------------------------------------------------------------|
A|---------------------------------------------------------------------------|
E|---------------------------------------------------------------------------|

  C                                  G

e|----------------------5--6--5-------------------7--5-----------------------|
B|----------5--6--7--8------------8------8--7--8---------8--7--6-----6-------|
G|---5---7--------------------------------------------------------7----------|
D|---------------------------------------------------------------------------|
A|---------------------------------------------------------------------------|
E|---------------------------------------------------------------------------|

  Bb

e|-------------4--4--3--1--1-------------------------------------------------|
B|------6--8-------------------4--3--3---1-----------------------------------|
G|---7---------------------------------------3-------------------------------|
D|---------------------------------------------------------------------------|
A|---------------------------------------------------------------------------|
E|---------------------------------------------------------------------------|

  C

e|--3--3--5--6--3--5---1--3--0--1------0--------------------------------1----|
B|---------------------------------3------1---3-------1----------------------|
G|------------------------------------------------3------3---2--0--1/2-------|
D|---------------------------------------------------------------------------|
A|---------------------------------------------------------------------------|
E|---------------------------------------------------------------------------|


Solo over same chord progression


************************************

| / Slide up

Find guitar tabs and chords

A B C D E F G H I J K L M N O P Q R S T U V W X Y Z #