Log in

One click and you are in

Login with Facebook Login with Google

Why sign up and log in

Guitar Tabs Explorer
Sarah Mclachlan tabs for Vox

Guitar tabs

VOX by Sarah McLachlan from the album "Touch"


Here is my tab of the guitar intro.
On the CD, Sarah M. uses a 12-string guitar.
I think the song has a 5/4 time signature.
Capo 5 and repeat the following:

   A chord diagramG+G                       A chord diagramC/DC/D
|-----3-------3-----3--|------3-------3-----3--|
|--3------3-------3----|---3------3-------3----|
|-----------0----------|------------0----------|
|-------0-------0------|--------2-------2------|
|----------------------|---3-------------------|
|--3-------------------|-----------------------|
   .  .   .   .   .        .  .   .   .   .

   A chord diagramE minor 7Em7                      Dsus2/Gb
|-----0-------0-----0--|----------0-------0----|
|--3------3-------3----|------3-------3-----3--|
|-----------0----------|---2--------2----------|
|-------0-------0------|--------0-------0------|
|----------------------|-----------------------|
|--0-------------------|---2-------------------|
   .  .   .   .   .        .  .   .   .   .


Chords:

A chord diagramG+G         320033
A chord diagramC/DC/D       x32033
A chord diagramE minor 7Em7       020030
Dsus2/Gb  2x0230

Other versions of Vox

VoxChords
Vox (Ver. 2)Chords

Almost there ...

Sign in to get your own page with links to favourite songs and more. You are just one click away...

Login with Facebook Login with Google