Log in

One click and you are in

Login with Facebook Login with Google

Why sign up and log in

Guitar Tabs Explorer
Sarah Mclachlan tabs for Plenty live intro

Guitar tabs with lyrics

This is my attempt to transcribe Sarah's intro to Plenty as
performed on the FTE Live video.


                 Plenty (live) - Sarah Mclachlan
                 ======

capo 3rd fret

                      **
E-------------------------------------------------------
B-------0-----3-------------0-----3-----------0-----3---
G-----0---0-----0-------0-----0-----0-----0-----0-----0-
D---2-------2-------------2-----2-----------0-----0-----
A---------------------3-----------------5---------------
E-0-----------------------------------------------------

E-----------------
B-------0-----3---
G---0-----0-----0-
D-----4-----4-----
A-5---------------
E-----------------

- Repeat this part twice before vocals come in.
- Then, start singing at the ** mark while playing.
- Keep repeating this first part until she sings "I failed"


Next part:
----------
These picking patterns may not be exactly like hers, but
they should sound OK for the this part (I'd go and figure it
out, but I've lost my capo :-(

   A chord diagramCadd9Cadd9    pick like this
E--3-----|-----------------
B--3-----|----------3------
G--0-----|--------0---0---0
D--2-----|------2-------2--
A--3-----|--3--------------
E--x-----|-----------------

   A chord diagramG+G
E--3-----|-----------------
B--3-----|--------3--------
G--0-----|------0-----0---0
D--0-----|----2---------2--
A--2-----|-----------------
E--3-----|--3--------------

   A-Asus2 part
E--------------------------
B-------2-3-2--------------
G------2------2------2-2---
D-----2----------2----2----
A--0-----------0-----------
E--------------------------


I ...(no guitar with these words)

A chord diagramCadd9Cadd9         A chord diagramG+G                    A-Asus2 part
let myself be-lieve ...

            A chord diagramCadd9Cadd9           A chord diagramG+G                A-Asus2 part
And I would stand by ....

             A chord diagramCadd9Cadd9           A chord diagramG+G
You know I'd be with ....


  day..................ay......
E---------------------------------------
B-------0-----3--------------0-----3----
G-----0---0-----0----------2---2-----2--
D---2-------2------------0-------0------
A---------------------------------------
E-0--------------------2----------------


  A(sus2)             A chord diagramC majorC
  ay..yay..  ay..     ay
E---------------------------------------
B-------3-----2------------1-------------
G-----2---2--------------0-----0---------
D---2-------2----------2---------2------
A-0------------------3-------------------
E---------------------------------------


  Un-til my  ....
   E------------------
   B-0-0----3-3-----0-
   G-0-0----2-2-----2-
   D-2-2----0-0-----2-
   A----------------0-
   E-0-0----2-2-------





I'm sure this isn't perfect, so if you notice some mistakes, please
let me know: I'd like to know how to play this properly.

Derek
b7k5@musicb.mcgill.ca

Almost there ...

Sign in to get your own page with links to favourite songs and more. You are just one click away...

Login with Facebook Login with Google