Ice by Sarah Mclachlan

Ice tab by Sarah Mclachlan

Guitar tabs

"Ice"
by Sarah McLachlan
from Fumbling Towards Ecstacy
1993 Artista/Nettwerk Records
Transcribed by Dan May (DBMay75@aol.com)

tuning: capo on 1st fret, low to high E-B-E-G-B-E
time signature: 4/4
guitar: acoustic

fig. 1
intro & verses
  Em
E-----------0--------0-------------------------------
B--------0--------0-----------0-------0--------------
G-----4--------2-----------2-------0--------2--------
D-----------------------3-------2--------------------
A----------------------------------------0-----------
E--0-------------------------------------------------

E-----0--------0-------------------------------------
B-----------0-----------0--------0-------------------
G--------2-----------2--------2----------2-----------
D-----------------3--------2--------2h3--------------
A-------------------------------------------0--------
E--0-------------------------------------------------
                      end fig. 1
fig. 2
  "The cold...      is lost..
  D(add9)         Cmaj7
E-----------0---------------------------------------
B-----------------0-----------------0-----------0---
G-----2--------2--------2-----2-----------2---------
D--------2-----------0-----------3-----------3------
A--3-----------------------1------------------------
E--------------------------------------3------------
  forgotten..."
  B7
E-----------0-----------------------0---------------
B-----------------0-----------0-----------0---------
G-----2--------2--------2--------------2--------2---
D--------2-----------2-----------2-----------2------
A--0-----------------------0------------------------
E---------------------------------------------------
                     end fig. 2
fig. 3
  "The only comfort...
  Cmaj7          B7
E-----------0-----------------------0---------------
B-----------------0-----------------------0-----0---
G-----2--------2--------2-----2--------2------------
D--------3-----------3-----------2-----------2------
A--1-----------------------0------------------------
E---------------------------------------------------

  Em         ...only a fool's here to stay"
E--------------0--------0---------------------------
B-----0-----0--------0-----------0--------0---------
G--------4--------2-----------2--------2------------
D--------------------------3--------2-----------2---
A--------------------------------------------3------
E--0------------------------------------------------
                     end fig. 3
Sax solo
  Em
E-----------0-----------0-----------0-----------0---
B-----5-----------5-----------5-----------5---------
G--------2-----------2-----------2-----------2------
D--3-----------3-----------3-----------3------------
A---------------------------------------------------
E---------------------------------------------------
  B7
E-----------0-----------0-----------0-----------0---
B-----4-----------4-----------4-----------4---------
G--------2-----------2-----------2-----------2------
D--2-----------2-----------2-----------2------------
A---------------------------------------------------
E---------------------------------------------------
  Em
E-----------0-----------0-----------0-----------0---
B-----3-----------3-----------3-----------3---------
G--------2-----------2-----------2-----------2------
D--1-----------1-----------1-----------1------------
A---------------------------------------------------
E---------------------------------------------------
  Esus          E
E-----------0-----------0-----------0-----------0---
B-----0-----------0-----------0-----------0---------
G--------2-----------2-----------2-----------2------
D--0-----------0-----------4-----------4------------
A---------------------------------------------------
E---------------------------------------------------

  "...only a fool's here"
  Cmaj7        B7(no3rd)
E-----------0---------------------------------------
B-----------------0---------------------------------
G-----2--------2--------2---------------------------
D--------3-----------3--2---------------------------
A--1--------------------0---------------------------
E---------------------------------------------------
                         END

That's the song! It may look overwhelming at first, but don't worry, it's
very easy as well as very accurate(I've seen Sarah three times live, I own the
Fumbling video, and the Fumbling book, so trust me, I know). Please e-mail me
with questions or comments. Otherwise, for more info on me, check out my
webpage at http://www.angelfire.com/me2/DBMay75/DBMpage.html

Cheers,
Dan May (DBMay75@aol.com)
Toronto, Canada

Other versions of Ice

Alternative guitar chords and tabs for Ice by Sarah Mclachlan

Find guitar tabs and chords

A B C D E F G H I J K L M N O P Q R S T U V W X Y Z #