Log in

One click and you are in

Login with Facebook Login with Google

Why sign up and log in

Guitar Tabs Explorer
Sarah Mclachlan tabs for Gloomy sunday

Guitar tabs with lyrics

  • Capo on 2nd
Gloomy Sunday
-Sarah Mclachlan


   A chord diagramA minorAm             A chord diagramA minorAm
E---------------3---------------2-------------|
A-0-------------------------------------------|
D-----2---2-------2-----2---------2-----2-----|
G---2-------2-------2-----2---2-----2-----2---|
B-------1-----1-------1-----1---------1-----1-|
e---------------------------------------------|

E-1-----------------------------3---------------|
A-----------------0-----------------------------|
D---2-----------2---2-----2-------2-----2-------|
G-----2---2---2-------2-----2-------2-----2---2-|
B-------1---0-----------1-----1-------1-----1---|
e-----------------------------------------------|

E-2---------------1---------------|
A---------------------------------|
D---2-----2---------2-----2-------| (intro 2xs and
G-----2-----2---2-----2-----2---2-| verses)
B-------3-----3---------1-----0---|
e---------------------------------|


Bridge 1 and 2:
E-------------------------------------------------|
A-------------------------------------------------|
D-0---------------3---------------0---------------|
G---2-----2---------2-----2---------2-----2-------|
B-----3-----3---3-----3-----3---3-----3-----3---3-|
e-------1-----1---------1-----1---------1-----1---|

these 2 parts (above and below) are for "little white flowers..."
and for "soon there'll be candles..." below is
the continuation for the part above.. not a new
part...

E-----------------------------------------------|
A-----------------------------------------------|
D-2-------2-------------------------------------|
G---0-4-----4-----------------------------------|
B-------3-------3-------------------------------|
e-------------0---------------------------------|

and the part below is for "dreamin'..."

Bridge 3
E-------------------------------------------------|
A-0---------------2---------------4---------------|
D---2---------------------------------------------|
G-----2-----2-------2-------2---------------2-----|
B-------1-----1-------1---1---1-----0-0-0-----0---|
e---------0-----0-------0-------0---------0-----0-|

E-------------|
A-2-----------|
D-------------|    at the end of this, theres a
G---2-------2-|    slight variation...its real hard
B-----1---1---|    to hear, so i didnt put it...
e-------0-----|    its almost the same though...
                                       after that part, go back to
                 the main part
                 (intro and the verses)

the end is basically the same... but last few picks are
done like this:

E-----------------|
A-0---------------|
D---2-------------|  thats basically it... its not
G-----2-----------|  PERFECT i know... but i think
B-------0-0h1---1-|  its close to the real thing...
e-------------0---|    :) hope this helps...

******
This file courtesy of the
Sarah McLachlan Guitar Archive
******

Other versions of Gloomy Sunday

Gloomy sundayChords

Almost there ...

Sign in to get your own page with links to favourite songs and more. You are just one click away...

Login with Facebook Login with Google