Log in

One click and you are in

Login with Facebook Login with Google

Why sign up and log in

Guitar Tabs Explorer
Sarah Mclachlan tabs for I will remember you

Guitar tabs with lyrics

I Will Remember You (solo)
                    ~~~~~~~~~~~~~~~~~~~~~~~~~~

lyrics by Sarah McLachlan; music by Seamus Egan
tab by Randy Yumul

# This is from the acoustic version that I heard, the notes will
# ring true, but you need to listen to the recording for the rhythm;
# also, 2 written measures will feel like one; I wrote this in a=20
# cut time.  Each note (but the first one) is in the right measure and
# you'll notice that the first measure is not a full one, just a lead.

# Note: parentheses indicate a fast triplet


E----------------|----------------|----------------|----------------|
B----------------|----------------|----------------|----------------|
G----------------|/6--9-6-9-------|-------6-7-6----|----------------|
D---------7-9-7--|----------------|------------9-7-|7h9--9-7-9------|
A----7-9---------|----------------|----------------|----------------|
E----------------|----------------|----------------|----------------|

E----------------|9------9--9--9--|9---5-5-5-------|----------------|
B----------------|10-----10-10-10-|10--5-5-5h7-----|-7-5---7-5-7----|
G----------------|----------------|--------------6-|-----6----------|
D------------7/9-|----------------|----------------|----------------|
A----------------|----------------|----------------|----------------|
E----------------|----------------|----------------|----------------|

E----------------|--------5--7----|9--10-/12---10-9|-(10-9----------|
B--5-7-----------|----------------|----------------|------12)10-12--|
G-----(6-4-2)----|2---/6----------|----------------|----------------|
D------------4-2-|--2-------------|----------------|----------------|
A----------------|----------------|----------------|----------------|
E----------------|----------------|----------------|----------------|

E---------------9-10-----9-10-----|9---------------------|
B-12-(9-10-12)-------12-----------|--10------------------|
G---------------------------------|-----9-------------9--|
D---------------------------------|-------12--11--12-----|
A---------------------------------|----------------------|
E---------------------------------|----------------------|

E----------------|--------7/9--7--|----------------|
B---------0h2-5-0|----------------|----------------|
G------2---------|----------------|----------------|
D----------------|----------------|----------------|
A----------------|----------------|----------------|
E----------------|----------------|----------------|

Almost there ...

Sign in to get your own page with links to favourite songs and more. You are just one click away...

Login with Facebook Login with Google