Search tabs and chords

Search for song, artist or band

Log in

One click and you are in

Login with Facebook Login with Google

Why sign up and log in

Guitar Tabs Explorer
Loreena Mckennitt guitar tabs for Tango to evora

Guitar tabs

I have alone find the way to play it...if I am wrong just tell it to me ...

"Capo at 7th fret"

||--0-0-0-0-1--0---|---0-0-0-5--0h1p0-|
||--1-1-1-1-3--1---|---1-1-1-5--1-----|
||----------2------|-------2----------|
||------2----------|-----2------------|
||----0------------|-0----------------|
||--0------------0-|------------------|
|---------0-----|---------0-----|------- --------|
|-3-3-3-3-1--3--|---3-3-3-1--3--|-1-1-1- 1-3--1--|
|-4-4-4-4-4--4--|---4-4-4-4--4--|-2-2-2- 2-4--2--|
|-----0---------|-------0-------|-----2- --------|
|---2-----------|-----2---------|---0--- --------|
|-0-------------|-0-------------|-0----- --------|


|------------------|---------------|
|---1-1-1-3--1h3p1-|-0-0-0-0-1--0--|
|---2-2-2-4--2-----|-1-1-1-1-2--1--|
|-------2----------|-----2---------|
|-----0------------|---2-----------|
|-0----------------|-0-------------|




|------------------|-----------------|-- -------------||
|---0-0-0-1--0h1p0-|-----------3-3---|-- ------------o||
|---1-1-1-2--1-----|-2-------4---4-4-|-2 -------4-----||
|-------2----------|-2-----2---------|-2 -----2-------||
|-----2------------|-----0-----------|-- ---0--------o||
|-0----------------|---0-------------|-- -0-----------||

||----------5--0h1p0-|---------5--3-1-0- |-0-0-0-1h3p1-0----|
||o-3-3-3-3-5--1-----|-3-3-3-3-5--5-3-1- |-1-1-1-3-----1----|
||--4-4-4-4----------|-4-4-4-4---------- |------------------|
||------0------------|-----0------------ |-----2------------|
||o---2--------------|---2-------------- |---0--------------|
||--0----------------|-0---------------- |-0--------------0-|


|------------------|---------------|---- ---0----0--|
|-1-1-1-3--1h3p1-0-|-0-0-0-1--0----|-0-0 -0-0----1--|
|-2-2-2-4--2-----1-|-1-1-1-2--1----|-1-1 -1---------|
|-----2------------|---2-----------|---- -2---------|
|---0--------------|-2-------------|---2 -----------|
|----------------0-|-------------0-|---- -----------|




|---------------|-----------------|----- ----------||
|-3-1--0--1-----|-----3-3---------|----- ---------o||
|-4-2--1--2-----|---4---4-4-2-----|---4- ---(4)----||
|---------------|-2---------2-----|-2--- ----------||
|-------------0-|---------------0-|----- ---------o||

Almost there ...

Sign in to get your own page with links to favourite songs and more. You are just one click away...

Login with Facebook Login with Google