Search tabs and chords

Search for song, artist or band

Log in

One click and you are in

Login with Facebook Login with Google

Why sign up and log in

Guitar Tabs Explorer
Loreena Mckennitt bass tabs for Tango to evora

Tango To Evora bass tab by Loreena Mckennitt

Loreena Mckennitt bass tabs for Tango to evora

Bass tabs with lyrics

4/4 timing, moderate tempo
standard tuning, key E minor
pedals: none

First Phrase
G:|--------|--------|--------|--------|--------|--------|--------|--------|
D:|--------|--------|--------|--------|--------|--------|--------|--------|
A:|7>------|7>-----7|--------|--------|7>------|7>------|--------|--------|
E:|-------7|--------|7>-----7|7>------|--------|--------|7>-----7|7>----7-|
   1 2 3 4  1 2 3 4  1 2 3 4  1 2 3 4  1 2 3 4  1 2 3 4  1 2 3 4  1 2 3 4

G:|--------|--------|
D:|--------|--------|
A:|7>------|>-------|
E:|--------|--------|
   1 2 3 4  1 2 3 4

First Phrase Reprise
G:|--------|--------|--------|--------|--------|--------|--------|--------|
D:|--------|-------7|9>------|------9-|--------|--------|--------|--------|
A:|7>------|7>----9-|-------7|--------|7>----7-|7>----7-|--------|--------|
E:|-------7|--------|--------|7>------|-------7|--------|7>-----7|7>----7-|
   1 2 3 4  1 2 3 4  1 2 3 4  1 2 3 4  1 2 3 4  1 2 3 4  1 2 3 4  1 2 3 4

G:|--------|--------|
D:|--------|--------|
A:|7>------|7>------|
E:|--------|--------|
   1 2 3 4  1 2 3 4

Second Phrase
G:|--------|--------|--------|--------|--------|--------|--------|--------|
D:|7>------|7>----7-|--------|--------|--------|--------|--------|--------|
A:|-------7|--------|7>----7-|7>----7-|-------7|--------|7>------|7>------|
E:|--------|--------|-------7|--------|7>------|7>----7-|-------7|--------|
   1 2 3 4  1 2 3 4  1 2 3 4  1 2 3 4  1 2 3 4  1 2 3 4  1 2 3 4  1 2 3 4

Second Phrase Reprise
G:|--------|--------|--------|--------|--------|--------|--------|--------|
D:|7>------|7>----75|--------|-------7|9>----7-|--------|--------|--------|
A:|-------7|--------|7>------|7>----9-|-------9|--------|7>------|>-------|
E:|--------|--------|-------7|--------|--------|7>----7-|--------|--------|
   1 2 3 4  1 2 3 4  1 2 3 4  1 2 3 4  1 2 3 4  1 2 3 4  1 2 3 4  1 2 3 4

First Phrase with vocal
G:|--------|--------|--------|--------|--------|--------|--------|--------|
D:|--------|-------7|9>----7-|--------|--------|-------7|9>----7-|--------|
A:|7>------|7>----9-|-------9|--------|7>--7>--|7>--7>9-|-------9|--------|
E:|-------7|--------|--------|7>------|-------7|--------|--------|7>----7-|
   1 2 3 4  1 2 3 4  1 2 3 4  1 2 3 4  1 2 3 4  1 2 3 4  1 2 3 4  1 2 3 4

G:|--------|--------|
D:|--------|--------|
A:|7>--7>--|7>--7>--|
E:|-------7|--------|
   1 2 3 4  1 2 3 4

G:|--------|--------|--------|--------|--------|--------|--------|--------|
D:|--------|-------7|9>-99-7-|------9-|--------|-------7|9>-99-7-|------9-|
A:|7>-77---|7>-77-9-|-------9|--------|7>-77--7|7>-77-9-|-------9|--------|
E:|-------7|--------|--------|7>-77---|------7-|--------|--------|7>-77---|
   1 2 3 4  1 2 3 4  1 2 3 4  1 2 3 4  1 2 3 4  1 2 3 4  1 2 3 4  1 2 3 4

G:|--------|--------|
D:|--------|--------|
A:|7>-77>--|7>-77>--|
E:|-------7|--------|
   1 2 3 4  1 2 3 4

Second Phrase with vocal
G:|----9>--|--------|--------|--------|--------|--------|--------|--------|
D:|7>-7--7-|7>-77>--|--------|----5>7-|--------|9>-7----|--------|--------|
A:|--------|--------|7>-7----|7>-7----|----9>--|----9>--|7>-7----|7>-77---|
E:|--------|--------|----7>7-|--------|7>------|------7-|----7>7-|------7-|
   1 2 3 4  1 2 3 4  1 2 3 4  1 2 3 4  1 2 3 4  1 2 3 4  1 2 3 4  1 2 3 4

G:|----9>--|---------|--------|--------|--------|--------|--------|--------|
D:|7>-7--7-|7>--7>-7-|--------|----5>-7|9>------|9>----9-|--------|--------|
A:|--------|--------5|7>-7----|7>-7----|----9>--|----9>--|7>-77>--|7>------|
E:|--------|---------|----7>7-|--------|--------|--------|-------7|--------|
   1 2 3 4  1 2 3 4   1 2 3 4  1 2 3 4  1 2 3 4  1 2 3 4  1 2 3 4  1 2 3 4

First Phrase with vocal reprise
G:|--------|--------|--------|--------|--------|--------|--------|--------|
D:|--------|--------|--------|9--9----|--------|--------|--------|9--97>--|
A:|7>-7----|7>-7--7-|----9>9-|----9>--|7>-7----|7>-77-5-|----9>--|------9-|
E:|----7>7-|----7>--|7>-7----|------7-|----7>7-|--------|7>-7--7-|--------|
   1 2 3 4  1 2 3 4  1 2 3 4  1 2 3 4  1 2 3 4  1 2 3 4  1 2 3 4  1 2 3 4

G:|--------|--------|
D:|--------|----9---|
A:|7>------|7>------|
E:|----7>--|------7-|
   1 2 3 4  1 2 3 4

G:|--------|--------|--------|--------|--------|--------|--------|--------|
D:|--------|--------|--------|9--9----|--------|-------7|9>--97--|--------|
A:|7>-7----|7>-7--7-|----9>9-|----9>--|7>-7----|7>-77-9-|------97|----7---|
E:|----7>7-|----7>--|7>-7----|------7-|----7>7-|--------|--------|7>-7--7-|
   1 2 3 4  1 2 3 4  1 2 3 4  1 2 3 4  1 2 3 4  1 2 3 4  1 2 3 4  1 2 3 4

G:|--------|--------|
D:|--------|--------|
A:|7>-77>--|7>-77-7-|
E:|-------7|--------|
   1 2 3 4  1 2 3 4

Second Phrase with vocal reprise
G:|--------|--------|--------|--------|--------|--------|--------|--------|
D:|7>-7----|7>-77-5-|--------|------57|9>-99---|------9-|--------|--------|
A:|----7--7|--------|7>-7----|7>-579--|------97|----9>--|7>-7----|7>-77-7-|
E:|--------|--------|----7>-7|--------|--------|7>-7----|----7>--|--------|
   1 2 3 4  1 2 3 4  1 2 3 4  1 2 3 4  1 2 3 4  1 2 3 4  1 2 3 4  1 2 3 4

G:|--------|---------|--------|--------|--------|--------|--------|--------|
D:|7>-7----|7--77---5|--------|--------|9--99---|------9-|--------|--------|
A:|----7---|---------|7--77---|7--77-7-|------9-|--------|7>-77>--|7>------|
E:|--------|---------|------7-|--------|--------|7>-77---|-------7|--------|
   1 2 3 4  1 2 3 4   1 2 3 4  1 2 3 4  1 2 3 4  1 2 3 4  1 2 3 4  1 2 3 4

Outro (bass rests to end of song)
G:|--------|--------|--------|--------|--------|--------|--------|--------|
D:|--------|--------|--------|--------|--------|--------|--------|--------|
A:|---R----|---R----|---R----|---R----|---R----|---R----|---R----|---R----|
E:|--------|--------|--------|--------|--------|--------|--------|--------|
   1 2 3 4  1 2 3 4  1 2 3 4  1 2 3 4  1 2 3 4  1 2 3 4  1 2 3 4  1 2 3 4



|| repeat between || as indicated	h hammer on		~ vibrato
/ slide up				p pull off
\ slide down				1. dotted note
> legato (let note ring)		11 fret one, twice
! staccato (full stop mute)		11 fret eleven
R rest					x ghost note

Almost there ...

Sign in to get your own page with links to favourite songs and more. You are just one click away...

Login with Facebook Login with Google