Into The Ocean by Andy Mckee

Into The Ocean tab by Andy Mckee

Guitar tabs

Arrangement for solo Harp Guitar

Intro:
G|-----------------------| G|------------------------------------------------------|
D|-----------------------| D|------------------------------------------------------|
C|-----------------------| C|------------------------------------------------------|
B|-----------------------| B|------------------------------------------------------|
A|-----------------------| A|------------------------------------------------------|
G|-----------------------| G|------------------------------------------------------|
e|-----------------------| e|--------0-------------------0--------------------0----|
B|----------(12)------10-| B|-10-------10---10--------10---10---10---------10---10-|
G|--(12)----(12)-(12)----| G|-------------0---------0---------0----------0---------|
D|--(12)-(7)-----(12)-10-| D|-10--10-------------10-------------------10-----------|
A|-------(7)-------------| A|-8----------------8--------------------8--------------|
E|-----------------------| E|------------------------------------------------------|

G|-------------------------------X-|
D|---------------------------------|
C|---------------------------------|
B|---------------------------------|
A|---------------------------------|
G|----------------------------X----|  REPEATX2 THEN
e|---------------------------------|         e|-----------|
B|-----------(12)------------------|         B|-----------|
G|--(12)-----(12)--------(12)------|         G|-(12)------|
D|--(12)-(7)-----(12)----(12)------|         D|-(12)-(7)--|
A|-------(7)-----(12)-(7)----------|         A|------(7)--|
E|--------------------(7)----------|         E|-----------|

MOVEMENT! EPIPHANY:
G|-X---------------------------X----|
D|----------------------------------|
C|----------------------------------|
B|----------------------------------|
A|----------------------------------|
G|----------------------------------| REPEAT X 4
e|----------------------------------|
B|----------------------------------|
G|-------2------2------2-----2------|
D|-----0------0------0-----0--------|
A|---4------4------4-----4----------|
E|----------------------------------|

G|--------------------------------------------------------|
D|--------------------------------------------------------|
C|--------------------------------------------------------|
B|--------------------------------------------------------|
A|--------------------------------------------------------|
G|-----X------------------------------X-------------------| REPEAT X 2
e|--------------------------------------------------------|
B|-0-2--------------------2--2H3P2----0-------------------|
G|----------2------2------2--------2--------2-----2----2--|
D|--------0------0------0-----------------0-----0----0----|
A|------4------4------4-----------------4-----4----4------|
E|--------------------------------------------------------|

G|--------------------------------------------------------|
D|--------------------------------------------------------|
C|--------------------------------------------------------|
B|--------------------------------------------------------|
A|--------------------------------------------------------|
G|--------------------------------------------------------| REPEAT X 2
e|--------------------------------------------------------|
B|-0-2--------------------2--2H3P2----0-------------------|
G|----------2------2------2--------2--------2-----2----2--|
D|--------0------0------0-----------------0-----0----0----|
A|------2------2------2-----------------2-----2----2------|
E|----0-------------------------------0-------------------|

G|--------------------------------------------------------|
D|--------------------------------------------------------|
C|--------------------------------------------------------|
B|--------------------------------------------------------|
A|--------------------------------------------------------|
G|-----X-------------------------X------------------------|
e|---2---------------------------0------------------------|
B|-0---------------3-------------------------2------------|
G|----------2------2------2----3-------2-----------2------|
D|--------0------0------0----0-------0-----0-----0--------|
A|------4------4------4----4-------4-----4-----4----------|
E|--------------------------------------------------------|

G|----------------------------------------------------------|
D|----------------------------------------------------------|
C|----------------------------------------------------------|
B|----------------------------------------------------------|
A|----------------------------------------------------------|
G|----------------------------------------------------------|
e|---2----------------------------0--------------------0----|
B|-0---------------3--------------------------2--------2----|
G|-----------2------------2-----2-------2-----------2--2----|
D|---------0-----0------0-----0-------0-----0-----0----0----|
A|-------2-----2------2-----2-------2-----2-----2-----------|
E|-----0--------------------------0-------------------------|

G|--------------------------------------------------------------------|
D|--------------------------------------------------------------------|
C|--------------------------------------------------------------------|
B|--------------------------------------------------------------------|
A|--------------------------------------------------------------------|
G|-x------------------------------------------------------------------|
e|-0H2-----2-----2-2-------X-2-------2-----2--2------2---X-2-0-X------|
B|-0H2---2-2-----2-2-----2-X-2H3P2---2H3---3--3---3--2H3-X-2-0-X------|
G|-4----4--4---4-4-4---4-4-X-------3-----4-4--4-4--------X---4-X------|
D|-----0---0-0-------0-----X-----------------------------X-----X-(12)-|
A|-------------------------X-----------------------------X-----X-(12)-|
E|-------------------------X---------0-------------------X-----X------|

G|------------------------------------------------------|     G|---------------|
D|------------------------------------------------------|     D|---------------|
C|------------------------------------------------------|     C|---------------|
B|------------------------------------------------X-----|     B|---------------|
A|------------------------------------------------------|     A|---------------|
G|-x----------------------------------------------------|   THEN G|---------------|
e|-0H2---2--2-----2-2-------X-2-------2-----0-----------|     e|-------X-------|
B|-0H2---2--2-----2-2-----2-X-2H3P2---2H3---0-----------|     B|-------X-------|
G|-------4--4---4-4-4---4---X-------3-----4-------------|     G|--(12)-X-------|
D|-----0------0-------0-----X-----------------(12)------|     D|--(12)-X--(7)--|
A|--------------------------X-----------------(12)------|     A|-------X--(7)--|
E|--------------------------X---------0-----------------|     E|-------X-------|

MOVEMENT 2 Despair:
G|--------------------------------------------------------|
D|--------------------------------------------------------|
C|--------------------------------------------------------|
B|--------------------------------------------------------|
A|--------------------------------------------------------|
G|-----X------------------------------X-------------------| REPEAT X 2
e|-0------------------------------------------------------|
B|---2--------------------2--2H3P2----0-------------------|
G|----------2------2------2--------2--------2-----2----2--|
D|--------0------0------0-----------------0-----0----0----|
A|------4------4------4-----------------4-----4----4------|
E|--------------------------------------------------------|

G|--------------------------------------------------------|
D|--------------------------------------------------------|
C|--------------------------------------------------------|
B|--------------------------------------------------------|
A|--------------------------------------------------------|
G|--------------------------------------------------------| REPEAT X 2
e|--------------------------------------------------------|
B|-0-2--------------------2--2H3P2----0-------------------|
G|----------2------2------2--------2--------2-----2----2--|
D|--------0------0------0-----------------0-----0----0----|
A|------2------2------2-----------------2-----2----2------|
E|----0-------------------------------0-------------------|

G|--------------------------------------------------------|
D|--------------------------------------------------------|
C|--------------------------------------------------------|
B|--------------------------------------------------------|
A|--------------------------------------------------------|
G|-----X-------------------------X------------------------|
e|---2---------------------------0------------------------|
B|-0---------------3-------------------------2------------|
G|----------2------2------2----3-------2-----------2------|
D|--------0------0------0----0-------0-----0-----0--------|
A|------4------4------4----4-------4-----4-----4----------|
E|--------------------------------------------------------|

G|----------------------------------------------------------|
D|----------------------------------------------------------|
C|----------------------------------------------------------|
B|----------------------------------------------------------|
A|----------------------------------------------------------|
G|----------------------------------------------------------|
e|---2----------------------------0--------------------0----|
B|-0---------------3--------------------------2--------2----|
G|-----------2------------2-----2-------2-----------2--2----|
D|---------0-----0------0-----0-------0-----0-----0----0----|
A|-------2-----2------2-----2-------2-----2-----2-----------|
E|-----0--------------------------0-------------------------|

G|--------------------------------------------------------------------|
D|--------------------------------------------------------------------|
C|--------------------------------------------------------------------|
B|--------------------------------------------------------------------|
A|--------------------------------------------------------------------|
G|-x------------------------------------------------------------------|
e|-0H2-----2-----2-2-------X-2-------2-----2--2------2---X-2-0-X------|
B|-0H2---2-2-----2-2-----2-X-2H3P2---2H3---3--3---3--2H3-X-2-0-X------|
G|-4----4--4---4-4-4---4-4-X-------3-----4-4--4-4--------X---4-X------|
D|-----0---0-0-------0-----X-----------------------------X-----X-(12)-|
A|-------------------------X-----------------------------X-----X-(12)-|
E|-------------------------X---------0-------------------X-----X------|

G|------------------------------------------------------|
D|------------------------------------------------------|
C|------------------------------------------------------|
B|------------------------------------------------X-----|
A|------------------------------------------------------|
G|-x----------------------------------------------------|
e|-0H2---2--2-----2-2-------X-2-------2-----0-----------|
B|-0H2---2--2-----2-2-----2-X-2H3P2---2H3---0-----------|
G|-------4--4---4-4-4---4---X-------3-----4-------------|
D|-----0------0-------0-----X-----------------(12)------|
A|--------------------------X-----------------(12)------|
E|--------------------------X---------0-----------------|

Movement 3 Low Tide:
G|-------X-------------------------------------------------|
D|---------------------------------------------------------|
C|---------------------------------------------------------|
B|---------------------------------------------------------|
A|---------------------------------------------------------|
G|---------------------------------------------------------|
e|-----2-------------2-----------2-----------2-----------2-|
B|-0-----------0-----------3-----------0-----------0-------|
G|---2-------2-----2-----2-----2-----2-----2-----2-----2---|
D|---------0-----0-----0-----0-----0-----0-----0-----0-----|
A|---------------------------------------------------------|
E|---------------------------------------------------------|

Movement 4 High Tide:
G|-------x-------------------------------------------------|
D|---------------------------------------------------------|
C|---------------------------------------------------------|
B|---------------------------------------------------------|
A|---------------------------------------------------------|
G|-X-------X-------X------X-----X-----X-----X------X-------|
e|---------------2------------2-----------2--------------2-|
B|-------0--------------3-----------0------------0---------|
G|-----2-------2------2------2-----2-----2-----2-------2---|
D|---0-------0------0------0-----0-----0-----0-------0-----|
A|---------------------------------------------------------|
E|---------------------------------------------------------|

Movement 5 Drowned in Solitude:
G|--------X--------------------------------------------|
D|------------------------X----------------------------|
C|-----------------------------------------------------|
B|-------------------------------------------------X---|
A|-----------------------------------------------------|
G|-----------------------------------------------------|
e|---------------2------------2-----------2------3/----|
B|-------0--------------3-----------0------------------|
G|-----2-------2------2------2-----2-----2-----2-------|
D|---0-------0------0------0-----0-----0-----0---------|
A|-----------------------------------------------------|
E|-0--------------0------------0-----0-----0-----------|

MoveMent 6 Hopelesness:
G|-----------------------------------------------------------X-----------X-----------------------------|
D|---------------------------------------------------------------------------------------X-------------|
C|-----------------------------------------------------------------------------------------------------|
B|-----------------------------------------------------------------------------------------------------|
A|-----------------------------------------------------------------------------------------------------|
G|--X------X-------X-------X-------X-------X-------X-------X-------------------------------------------|
e|-5-------------5---------------5---------------5-------3------2--------------2--------------2--------|
B|--------3--------------3---------------3-------3-------3-------------0---------------0--------------0|
G|------0------0-------0-------0-------0-------0-------0-------------2-------2-------2------2-------2--|
D|----4------4-------4-------4-------4-------4-------4-------------0-------0-------0------0-------0----|
A|-----------------------------------------------------------------------------------------------------|
E|----------------------------------------------------------------0--------------0--------------0------|


************************************

| (n) Ghost note
| x  Dead note
| /  Slide up

Find guitar tabs and chords

A B C D E F G H I J K L M N O P Q R S T U V W X Y Z #