Log in

One click and you are in

Login with Facebook Login with Google

Why sign up and log in

Guitar Tabs Explorer
Roger Mcguinn tabs for Its alright ma

Guitar tabs

It's Alright Ma by Roger McGuinn
from The Easy Rider Soundtrack


INTRO          x7
e---------------|--------------------0--|
B---------------|--------------------0--|
G---------------|--------------------1--|
D--2-2-2-5-7-5--|------2p0---------2-2--|
A--2-2-2-5-7-5--|--0h2-----2p0-----2-2--|
E--0-0-0-3-5-3--|--------------3/5-0-0--|
VERSE
e------------------------------|
B------------------------------|
G------------------------------| tremolo picked
D------------------------------|
A--5----4----5----4----3----2--|
E------------------------------|
  x14  x14  x14  x14  x14   x7

0.30           x3
e---------------|--------------------0--------|
B---------------|--------------------0--------|
G---------------|--------------------1--------|
D--2-2-2-5-7-5--|------2p0---------2-2-----2--|
A--2-2-2-5-7-5--|--0h2-----2p0-----2-2-0h2-2--|
E--0-0-0-3-5-3--|--------------3/5-0-0-----0--|


CHORUS
e------------------------------------|
B------------------------------------|
G--9--7--12--14--13-11-14-11--14-13--|
D--9--7--12--14--13-11-14-11--14-13--|
A--7--5--10--12--11-9--12-9---12-11--|
E------------------------------------|

1.30          x11
e---------------|--------------------0--------|
B---------------|--------------------0--------|
G---------------|--------------------1--------|
D--2-2-2-5-7-5--|------2p0---------2-2-----2--|
A--2-2-2-5-7-5--|--0h2-----2p0-----2-2-0h2-2--|
E--0-0-0-3-5-3--|--------------3/5-0-0-----0--|


VERSEx1

2.06
e---------------|--------------------0--------|
B---------------|--------------------0--------|
G---------------|--------------------1--------|
D--2-2-2-5-7-5--|------2p0---------2-2-----2--|
A--2-2-2-5-7-5--|--0h2-----2p0-----2-2-0h2-2--|
E--0-0-0-3-5-3--|--------------3/5-0-0-----0--|


CHORUSx1

The rest of the song is just above parts repeated.

Any corrections please comment
Thanks

Almost there ...

Sign in to get your own page with links to favourite songs and more. You are just one click away...

Login with Facebook Login with Google