Log in

One click and you are in

Login with Facebook Login with Google

Why sign up and log in

Guitar Tabs Explorer
Tim Mcgraw chords for Something like that

Guitar chords

Something Like That
Recorded by Tim McGraw
Transcribed by James O’Neill
This tab is all my own work.


Intro:

A chord diagramFF	A chord diagramEb MajorEb	A chord diagramBb majorBb	A chord diagramDmDm	A chord diagramC majorC
A chord diagramFF	A chord diagramEb MajorEb	A chord diagramBb majorBb	A chord diagramDmDm	A chord diagramC majorC


Verse:

A chord diagramFF	A chord diagramEb MajorEb	A chord diagramBb majorBb
It was

A chord diagramFF	A chord diagramEb MajorEb	A chord diagramBb majorBb
And I drove

A chord diagramFF	A chord diagramEb MajorEb	A chord diagramBb majorBb
When I saw

A chord diagramFF	A chord diagramEb MajorEb	A chord diagramBb majorBb
And it all

A chord diagramBb majorBb	A chord diagramC majorC
Oh a sailor’s

A chord diagramDmDm	A chord diagramC/EC/E
And that’s a


Chorus:

A chord diagramFF	A chord diagramC majorC
I had a

A chord diagramBb majorBb	A chord diagramC majorC
She was killin’

A chord diagramFF	A chord diagramC majorC			A chord diagramDmDm	A chord diagramC majorC	A chord diagramBb majorBb	A chord diagramC majorC
Skippin’ rocks

A chord diagramFF	A chord diagramC majorC
She had a
A chord diagramG minorGm	A chord diagramF/AF/A	A chord diagramBb majorBb	A chord diagramC majorC
I worked so

A chord diagramDmDm	A chord diagramC majorC	A chord diagramBb majorBb
Heart don’t forget

A chord diagramC majorC	A chord diagramFF
Something like that

A chord diagramFF	A chord diagramEb MajorEb	A chord diagramBb majorBb	A chord diagramDmDm	A chord diagramC majorC


Verse 2 (Same pattern as Verse 1)


Chorus


Main Riff:


-----------------------------------------------------------
--------10--10--10--10\8--8--/11--9b--8--------------------
-----------------------------------------10--8-------------
--9/10------------------------------------------10--8--10--
-----------------------------------------------------------
-----------------------------------------------------------


-----------------------------------------------------------
-----------------------------------10----------------------
-----------10------10--10--10--12------12--10--12--10--9-12
--10--/13------12------------------------------------------
-----------------------------------------------------------
-----------------------------------------------------------

A chord diagramG minorGm
Like an old

A chord diagramF/AF/A
Time can

A chord diagramBb majorBb
But the memory

A chord diagramC majorC
Never fades away


Chorus
A chord diagramFF	A chord diagramEb MajorEb	A chord diagramBb majorBb	A chord diagramDmDm	A chord diagramC majorC
A chord diagramFF	A chord diagramEb MajorEb	A chord diagramBb majorBb	A chord diagramDmDm	A chord diagramC majorC	A chord diagramFF

Almost there ...

Sign in to get your own page with links to favourite songs and more. You are just one click away...

Login with Facebook Login with Google