Log in

One click and you are in

Login with Facebook Login with Google

Why sign up and log in

Guitar Tabs Explorer
Tim Mcgraw tabs for Cowboy in me

Guitar tabs

Tim McGraw

"The Cowboy in Me" Solo

Transcription by Joshua Kyle Miller

This song is from the album, "Set This Circus Down."  I'm pretty sure
there are

two guitars playing different parts of this solo, so I tried to combine
them as

best as I could. Begin crisply after the descending steel guitar.




e-------------------------------------------------------------------------------
b--5h7----5p3--5--5b7--7r5p3-----------------------------------------------3----
g-----------------------------4--2--2v---------2------------------------2-------
d-----------------------------------------2h4-----2h4--2--2--------2/4----------
a------------------------------------------------------------4--5---------------
e-------------------------------------------------------------------------------
                                  hold bend

e-------5---------10--12--12b14v--14v--14v--14v--14r12--10----------------------
b--5/7-----10/12--------------------------------------------12p10--10v----------
g-------------------------------------------------------------------------------
d-------------------------------------------------------------------------------
a-----------------------------------------------------------------------x7--x9-

e-------------------------------------------------------------------------------

e-------------------------------------------------------------------------------
b----------10----10-------------------------------------------------------------
g----------9h11--9h11--11p9\7--9--9b11--11r9--7--7v-----------------------------
d--x7--x9-----------------------------------------------------------------------
a------------------------------------------------------5--5--5--7--7/9--9\7--5--
e-------------------------------------------------------------------------------


e--/10-----------10--12--10--12--12b14--10--12p10-------------------------------
b--/10(15x)--10------------------------------------14b15r14b15--10--------------
g-------------------------------------------------------------------9b11r9b11---
d-------------------------------------------------------------------------------
a-------------------------------------------------------------------------------
e-------------------------------------------------------------------------------


e------------------------------(14)r12--14r12--14r12--14r12--14r12--14r12-------
b-------------------------------------------------------------------------------
g--7--7v----------2-------------------------------------------------------------
d---------0--2/4-----4\2--0-----------------------------------------------------
a-------------------------------------------------------------------------------
e-------------------------------------------------------------------------------


e--14r12--14r12--10---------10--10--10\5--5--5--5-------------------------------
b--------------------10v----10--10--10\5--5--5--5--3--3--3--5--5b7r5------------
g---------------------------------------------------------------------4---------
d-------------------------------------------------------------------------------
a-------------------------------------------------------------------------------
e-------------------------------------------------------------------------------


e-----------------------------------------------5-------5-----------------------
b-----3/5--3--3v------------------------x3--5/7-----5/7-----7\5--3--3v----------
g--2---------------------------x2--x4-------------------------------------------
d------------------x0--x2--x4------------------------------------------x0-------
a-------------------------------------------------------------------------------
e-------------------------------------------------------------------------------
                                      hold bend

e---------------------------------------17-----------------17--17---------------
b--3----3--(3)-----------15--17--17b19------19r17--15--17------17b19r17---------
g--2h4--2---2v----14/16---------------------------------------------------------
d-------------------------------------------------------------------------------
a-------------------------------------------------------------------------------
e-------------------------------------------------------------------------------


e---17--------------------------------------------------------------------------
b--(19)r17--15--15v-------------------------------------------------------------
g-------------------------------------------------------------------------------
d-------------------------------------------------------------------------------
a-------------------------------------------------------------------------------
e-------------------------------------------------------------------------------

Other versions of Cowboy In Me

Cowboy in MeChords

Almost there ...

Sign in to get your own page with links to favourite songs and more. You are just one click away...

Login with Facebook Login with Google