Log in

One click and you are in

Login with Facebook Login with Google

Why sign up and log in

Guitar Tabs Explorer
Paul McCartney tabs for Venus and mars

Guitar tabs

This file is all my own work.

Intro:

E--2-2-2--2-2-2--2-2-2--2-2-2
B--3-3-3--3-3-3--3-3-3--3-3-3
G--2-2-2--2-2-2--2-2-2--2-2-2
D-0------0------0------------
A---------------------0------
E----------------------------  (play this part 2 times then play)
 (Red lights, green lights, strawberry wine,a good friend of mine
E--2-----3------5-----2------5----7--8---7-----5-----3-----2---3
B---------------------------------------------------------------

  follows the stars Venus and Mars are alright tonight)
E--2---0-------------2-0--------------------2---5---2--
B----------3----5----------3---5----3---5--------------

A chord diagramD MajorD                            A chord diagramA minorAm
Sitting in the stands of the sports arena,
                        A chord diagramD MajorD
Waiting for the show to begin.
    .
End:
A chord diagramG+G  A chord diagramA augmentedA  A chord diagramFF  A chord diagramD MajorD
A chord diagramG+G  A chord diagramA augmentedA  A chord diagramFF  A chord diagramD MajorD
A chord diagramG+G  A chord diagramA augmentedA  A chord diagramFF  A chord diagramD MajorD
A chord diagramG+G  A chord diagramD MajorD  A chord diagramA augmentedA


Does anyone knows tabs of "You gave me the answer" or "Here today"?

Other versions of Venus And Mars

Venus and marsChords
Venus and mars rock showChords

Almost there ...

Sign in to get your own page with links to favourite songs and more. You are just one click away...

Login with Facebook Login with Google