Log in

One click and you are in

Login with Facebook Login with Google

Why sign up and log in

Guitar Tabs Explorer
Paul McCartney tabs for Vanilla sky

Guitar tabs with lyrics

Vanilla Sky
(Paul McCartney)

- Tabbed by Brian Gruber (skratchy@gate.net)
Tabbed in Courier size 10
------------------------------------------------------
Please note, that this is just my interpretation and my first tab. As =
with all tabs, this is just to give you a head start.
Always listen to the song as many times as possible for all the little =
things that I miss, which includes rhythm.
Enjoy.

(Standard Tuning)
Intro - repeat 4 times
E--------0-----------------------------:|
B----3------3--------2---3^2-----------:|
G----0--------0------0---0----0--------:|
D----2--------------------------2------:|
A----------------0---------------------:|
E--0-----------------------------------:|

Verses

The chef prepares, a special menu.....
E--------0-----------------------------:|
B----3------3--------2---3^2-----------:|
G----0--------0------0---0----0--------:|
D----2--------------------------2------:|
A----------------0---------------------:|
E--0-----------------------------------:|

Bridge (strum these chords)

This is your time..
|------0----------------2-----------------|
|------2----------------3-----------------|
|------1----------------4-----------------|
|------2----------------4-----------------|
|------0----------------2-----------------|
|------0----------------2-----------------|

This is your day
|------0----------------0-----------------|
|------0----------------2-----------------|
|------1----------------2-----------------|
|------0----------------2-----------------|
|------2----------------0-----------------|
|------0----------------0-----------------|

You've Got it all
|------0----------------2-----------------|
|------2----------------3-----------------|
|------1----------------4-----------------|
|------2----------------4-----------------|
|------0----------------2-----------------|
|------0----------------2-----------------|


Don't Blow it....  =20
|------0----------------------|
|------0----------------------|
|------1----------------------|
|------0----------------------|
|------2----------------------|
|------0----------------------|

Away (Bridge Strum)=20

|-----------0-----------------0---------------------|
|-----------7-----------------5---------------------|
|-----------6-----------------5---------------------|
|-----------4-----------------3---------------------|
|-----4-----4------------4----3---------------------|
|-----------x-----------------x---------------------|


Bridge (with whistling and solo over it, doodoodoo etc.)
E--------0-----------------------------:|
B----3------3--------2---3^2-----------:|
G----0--------0------0---0----0--------:|
D----2--------------------------2------:|
A----------------0---------------------:|
E--0-----------------------------------:|


Now back to Verse 2:

The chef prepares, a special menu.....
E--------0-----------------------------:|
B----3------3--------2---3^2-----------:|
G----0--------0------0---0----0--------:|
D----2--------------------------2------:|
A----------------0---------------------:|
E--0-----------------------------------:|


Bridge (strum these chords)

This is your time..
|------0----------------2-----------------|
|------2----------------3-----------------|
|------1----------------4-----------------|
|------2----------------4-----------------|
|------0----------------2-----------------|
|------0----------------2-----------------|

This is your day
|------0----------------0-----------------|
|------0----------------2-----------------|
|------1----------------2-----------------|
|------0----------------2-----------------|
|------2----------------0-----------------|
|------0----------------0-----------------|

You've Got it all
|------0----------------2-----------------|
|------2----------------3-----------------|
|------1----------------4-----------------|
|------2----------------4-----------------|
|------0----------------2-----------------|
|------0----------------2-----------------|


Don't Blow it....  =20
|------0----------------------|
|------0----------------------|
|------1----------------------|
|------0----------------------|
|------2----------------------|
|------0----------------------|

Away (Bridge Strum)=20

|-----------0-----------------0---------------------|
|-----------7-----------------5---------------------|
|-----------6-----------------5---------------------|
|-----------4-----------------3---------------------|
|-----4-----4------------4----3---------------------|
|-----------x-----------------x---------------------|


Bridge (with whistling solo over it, doodoodoo etc.)
E--------0-----------------------------:|
B----3------3--------2---3^2-----------:|
G----0--------0------0---0----0--------:|
D----2--------------------------2------:|
A----------------0---------------------:|
E--0-----------------------------------:|


Now back to Verse 3:

The chef prepares, a special menu.....

In a Vanilla, In a Vanilla, In a Vanilla Sky
In a Vanilla, In a Vanilla, In a Vanilla Sky

E--------0-----------------------------:|
B----3------3--------2---3^2-----------:|
G----0--------0------0---0----0--------:|
D----2--------------------------2------:|
A----------------0---------------------:|
E--0-----------------------------------:|

Mmm....
|------0----------------2---------------|
|------2----------------3---------------|
|------1----------------4---------------|
|------2----------------4---------------|
|------0----------------2---------------|
|------0----------------2---------------|

In a Vanilla Sky
|------0----------------0---------------|
|------0----------------2---------------|
|------1----------------2---------------|
|------0----------------2---------------|
|------2----------------0---------------|
|------0----------------0---------------|

End

- Tabbed by Brian Gruber March 26, 2002  -

Other versions of Vanilla Sky

Vanilla skyChords

Almost there ...

Sign in to get your own page with links to favourite songs and more. You are just one click away...

Login with Facebook Login with Google