Log in

One click and you are in

Login with Facebook Login with Google

Why sign up and log in

Guitar Tabs Explorer
Paul McCartney bass tabs for Time to hide

Bass tabs with lyrics

Wings - Time To Hide
Words & Music by Denny Laine
>From the album 'Wings at the Speed of Sound' (1976)
Bass played by Paul McCartney

comments/corrections/questions: bvan_rossum@hotmail.com
[Intro]
G|--------0---0-----------0-------|
D|----------------0---0-----4-0---|
A|--------------------------------|
E|--------------------------------|
 ^    ^    ^    ^


G|--------------------------------|---------------------------------|
D|2-------2-------2-------0---2---|--------2---------------0---2----|
A|----2---------------2-----------|----2---------------2------------|
E|--------------------------------|---------------------------------|
 ^    ^    ^    ^    ^    ^    ^    ^


G|--------------------------------|0---0----------------------------|
D|2-------2---------------0---2---|--------4---4---0---0---4-2-0----|
A|----2---------------2-----------|---------------------------------|
E|--------------------------------|---------------------------------|
 ^    ^    ^    ^    ^    ^    ^    ^


G|--------------------------------|---------------------------------|
D|2-------2---------------0---2---|--------2---------------0---2----|
A|----2---------------2-----------|----2---------------2------------|
E|--------------------------------|---------------------------------|
 ^    ^    ^    ^    ^    ^    ^    ^

G|--------------------------------|---------------------------------|
D|2-----------2-------0-----------|----------------------------2----|
A|------------------------2-------|------------------------2--------|
E|--------------------------------|3---3---0---0---3---3------------|
 ^    ^    ^    ^    ^    ^    ^    ^


G|--------------------------------|---------------------------------|
D|--------2---------------0---2---|--------2---------------0---2----|
A|----2---------------2-----------|----2---------------2------------|
E|--------------------------------|---------------------------------|
 ^    ^    ^    ^    ^    ^    ^    ^


G|--------------------------------|---------------------------------|
D|--------2-----------5\4-0---2---|--------2-------2---0------------|
A|----2---------------------------|----2-------------------2--------|
E|--------------------------------|---------------------------------|
 ^    ^    ^    ^    ^    ^    ^    ^

[0:29]  If  I have  to  run,          I'm not
G|--------------------------------|---------------------------------|
D|------------2-----------2-------|0---0---0-----------0------------|
A|--------------------2-----------|-----------------------------4---|
E|0-------------------------------|---------------------------------|
 ^    ^    ^    ^    ^    ^    ^    ^

 running     out on     you
G|--------------------------------|-------/6---6---2---2---0---0----|
D|--------------------------------|---------------------------------|
A|2---2---2-----------2-------1---|0--------------------------------|
E|--------------------------------|---------------------------------|
 ^    ^    ^    ^    ^    ^    ^    ^

     If I  have  to shake       a little
G|--------------------------------|---------------------------------|
D|2-------2---------------2-------|---------------------------------|
A|----2---------------2-------2---|3-----------3-------2---3--/7----|
E|--------------------------------|---------------------------------|
 ^    ^    ^    ^    ^    ^    ^    ^

 sand  out   of   my   shoes
G|--------------------------------|---------------------------------|
D|--------------------------------|---------------------------------|
A|5---5---5-----------5---5---4---|3---3---3-------3---2---0--------|
E|--------------------------------|----------------------------3----|
 ^    ^    ^    ^    ^    ^    ^    ^

   I'm running from  the law          or they'll
G|--------------------------------|---------------------------------|
D|----2---2-------2---2-----------|0---0---0------------0-----------|
A|--------------2-------------2---|----------------------------4----|
E|0-------------------------------|---------------------------------|
 ^    ^    ^    ^    ^    ^    ^    ^

 put me       in  - side
G|--------------------------------|---------------------------------|
D|--------------------------------|---------------------------------|
A|2---2---2-------2---2-------1---|0---0---4---4---5---5--/7\-------|
E|--------------------------------|---------------------------------|
 ^    ^    ^    ^    ^    ^    ^    ^

 Baby  won't you let me    have a little  time  to  hide
G|--------------------------------|---------------------------------|
D|----------------0---0-----------|------------------------0---2----|
A|--------2---3---------------0---|------------2---3----------------|
E|3---3---------------------------|---------------------------------|
 ^    ^    ^    ^    ^    ^    ^    ^


G|--------------------------------|---------------------------------|
D|--------2-----------0---1---2---|--------2-----------0------------|
A|----2---------------------------|----2----------------------------|
E|--------------------------------|------------------------7\-------|
 ^    ^    ^    ^    ^    ^    ^    ^

 Baby  won't you let me    have a little  time  to  hide
G|--------------------------------|---------------------------------|
D|----------------0---0-----------|------------------------0---2----|
A|--------2---3---------------0---|------------2---3----------------|
E|3-------------------------------|---------------------------------|
 ^    ^    ^    ^    ^    ^    ^    ^


G|--------------------------------|---------------------------------|
D|--------2-------------------2---|--------2-------2---0------------|
A|----2---------------------------|----2-------------------2--------|
E|--------------------------------|---------------------------------|
 ^    ^    ^    ^    ^    ^    ^    ^

1:14   I've been on the run            since the good
G|--------------------------------|------------7------9/11-9\-------|
D|------------2-----------2---1---|0--------------------------------|
A|--------------------2-----------|---------------------------------|
E|0-------------------------------|---------------------------------|
 ^    ^    ^    ^    ^    ^    ^    ^

 Lord        knows    when
G|--------------------------------|-------/6---6---2---2---0---0----|
D|--------------------------------|---------------------------------|
A|--------------------------------|---------------------------------|
E|7-----------7-------7---7---6---|5--------------------------------|
 ^    ^    ^    ^    ^    ^    ^    ^

	  And the day I   die              I'll
G|--------------------------------|---------------------------------|
D|2-------2-----------------------|---------------------------------|
A|----2---------------2-------2---|3-------3-----------2---3--/7----|
E|--------------------------------|---------------------------------|
 ^    ^    ^    ^    ^    ^    ^    ^

 still  be   running   then
G|--------------------------------|---------------------------------|
D|--------------------------------|---------------------------------|
A|5---5---5-----------5-------4---|3---3---3-------3---2---0--------|
E|--------------------------------|----------------------------3----|
 ^    ^    ^    ^    ^    ^    ^    ^

1:32 I'm running from  the   days         when I would
G|--------------------------------|---------------------------------|
D|--------2-----------2-------2---|0---0---0-----------0-------0----|
A|--------------------------------|---------------------------------|
E|0-------------------------------|---------------------------------|
 ^    ^    ^    ^    ^    ^    ^    ^
 lay   me down    and   cry
G|--------------------------------|---------------------------------|
D|--------------------------------|---------------------------------|
A|----2---2-----------2---2---1---|0---0---4---4---5---5---7\-------|
E|--------------------------------|---------------------------------|
 ^    ^    ^    ^    ^    ^    ^    ^

 Baby  won't you let me    have a little  time  to  hide
G|--------------------------------|---------------------------------|
D|----------------0---0-----------|------------------------0---2----|
A|--------2---3---------------0---|------------2---3----------------|
E|3-------------------------------|---------------------------------|
 ^    ^    ^    ^    ^    ^    ^    ^


G|--------------------------------|---------------------------------|
D|------------2-2-2---2---0---2---|--------2-----------0------------|
A|--------------------------------|----2----------------------------|
E|--------------------------------|------------------------7\-------|
 ^    ^    ^    ^    ^    ^    ^    ^

 Baby  won't you let me    have a little  time  to  hide
G|--------------------------------|---------------------------------|
D|----------------0---0---0-------|------------------------0---2----|
A|--------2---3---------------0---|------------2---3----------------|
E|3-------------------------------|---------------------------------|
 ^    ^    ^    ^    ^    ^    ^    ^


G|--------------------------------|---------------------------------|
D|--------2-------------------2---|--------2------------------------|
A|----2---------------2---2-------|----2---------------5------------|
E|--------------------------------|------------------------7\-------|
 ^    ^    ^    ^    ^    ^    ^    ^

1:59
G|--------------------------------|---------------------------------|
D|--------------------------------|---------------------------------|
A|3---3---3---3-------2---3---3---|3---3---1---1--------------------|
E|--------------------------------|----------------4---4---3---3----|
 ^    ^    ^    ^    ^    ^    ^    ^

	  Will I love you to -  morrow       yes I  will
G|--------------------------------|---------------------------------|
D|--------3-------3---3---1h2h3---|--------3-----3-3----------------|
A|--------------3-----------------|--------------------3---3--------|
E|1---1---------------------------|----------------------------3----|
 ^    ^    ^    ^    ^    ^    ^    ^

           yes I  will
G|--------------------------------|---------------------------------|
D|--------------------------------|---------------------------------|
A|--------------------3---3-------|---------------------------------|
E|--------3-----3-3-----------3---|--------3---3-------3---3---3----|
 ^    ^    ^    ^    ^    ^    ^    ^

     Will I beg steal or   borrow       yes I  will
G|--------------------------------|---------------------------------|
D|3-------3-----------3-------1h2h|3-------3-----3-3----------------|
A|--------------------------------|--------------------3---3--------|
E|--------------------------------|----------------------------3----|
 ^    ^    ^    ^    ^    ^    ^    ^

			  yes I  will
G|--------------------------------|---------------------------------|
D|--------------------------------|---------------------------------|
A|--------------------3---3-------|---------------------------------|
E|--------3---3---------------3---|--------3-------3---3---1---2----|
 ^    ^    ^    ^    ^    ^    ^    ^

Just spend a little time,   help  me  to be by   your side
G|--------------------------------|---------------------------------|
D|----------------0---0---0-------|------------------------0---2----|
A|--------2---3---------------0---|------------2---3---3------------|
E|3---3---------------------------|---------------------------------|
 ^    ^    ^    ^    ^    ^    ^    ^


G|--------------------------------|---------------------------------|
D|--------2---------------0---2---|--------2-------0---0------------|
A|----2---------------2-----------|----2-------------------2---2----|
E|--------------------------------|---------------------------------|
 ^    ^    ^    ^    ^    ^    ^    ^

 Baby  won't you let me    have a little  time  to  hide
G|--------------------------------|---------------------------------|
D|----------------0---0---0-------|------------------------0---2----|
A|--------2---3---------------0---|------------2---3---3------------|
E|3-------------------------------|---------------------------------|
 ^    ^    ^    ^    ^    ^    ^    ^


G|--------------------0-----------|---------------------------------|
D|--------2-------2-------2-------|---------------------------------|
A|----2---------------------------|----------------2---0------------|
E|--------------------------------|------------------------3--------|
 ^    ^    ^    ^    ^    ^    ^    ^

[mouth organ solo] [2:38]
G|--------------------------------|---------------------------------|
D|--------2-------2---2-------2---|0---0---0------------------------|
A|--------------2-----------------|--------------------5\-----------|
E|0-------------------------------|---------------------------------|
 ^    ^    ^    ^    ^    ^    ^    ^


G|--------------------------------|-------/6---6---2---2---0---0----|
D|--------------------------------|---------------------------------|
A|2---2---2---2---2---2---2---1---|0--------------------------------|
E|--------------------------------|---------------------------------|
 ^    ^    ^    ^    ^    ^    ^    ^


G|--------------------------------|---------------------------------|
D|2-------2---------------2-------|---------------------------------|
A|----2---------------2-------2---|3---3---3-----------2---3--/7----|
E|--------------------------------|---------------------------------|
 ^    ^    ^    ^    ^    ^    ^    ^


G|--------------------------------|---------------------------------|
D|--------------------------------|---------------------------------|
A|5---5---5---5-------5---5---4---|3-----------3---3---2---0--------|
E|--------------------------------|----------------------------3----|
 ^    ^    ^    ^    ^    ^    ^    ^

[guitar solo]
G|--------9-----------------------|---------------------------------|
D|--------------------------------|---------------------------------|
A|------------7-------7---7---6---|5---5---5-------5---5---5---5----|
E|0-------------------------------|---------------------------------|
 ^    ^    ^    ^    ^    ^    ^    ^


G|--------------------------------|---------------------------------|
D|--------------------------------|----------------0---0---2--------|
A|2-------2---2-------2---2---1---|0---0---4---4---------------0----|
E|--------------------------------|---------------------------------|
 ^    ^    ^    ^    ^    ^    ^    ^


G|--------------------------------|---------------------------------|
D|----------------0---0-----------|------------------------0---2----|
A|--------2---3---------------0---|------------2---3----------------|
E|3-------------------------------|---------------------------------|
 ^    ^    ^    ^    ^    ^    ^    ^


G|--------------------------------|---------------------------------|
D|--------2-------2---2---0---2---|--------2-------2---0------------|
A|----2---------------------------|----2-------------------2---0----|
E|--------------------------------|---------------------------------|
 ^    ^    ^    ^    ^    ^    ^    ^

 Baby  won't you let me    have a little  time  to  hide
G|--------------------------------|---------------------------------|
D|----------------0---0---0-------|------------------------0---2----|
A|--------2---3---------------0---|------------2---3----------------|
E|3-------------------------------|---------------------------------|
 ^    ^    ^    ^    ^    ^    ^    ^


G|--------------------------------|---------------------------------|
D|--------2-------------------2---|2---0-----------2---0------------|
A|----2---------------2---2-------|--------2---------------2--------|
E|--------------------------------|---------------------------------|
 ^    ^    ^    ^    ^    ^    ^    ^

[3:23]  If  I have  to  run,          I'm not
G|--------------------------------|---------------------------------|
D|--------------------------------|------------7\-------------------|
A|------------7-------------------|5--------------------------------|
E|0-------------------------------|---------------------------------|
 ^    ^    ^    ^    ^    ^    ^    ^


G|------------4p2h4---------------|-------/6---6---2---2---0---0----|
D|--------------------------------|---------------------------------|
A|2-------------------------------|0--------------------------------|
E|--------------------------------|---------------------------------|
 ^    ^    ^    ^    ^    ^    ^    ^

 If I  have  to shake       a little
G|--------------------------------|---------------------------------|
D|2-------2---------------2-------|---------------------------------|
A|----------------------------2---|3-----------3-------2---3--/7----|
E|--------------------------------|---------------------------------|
 ^    ^    ^    ^    ^    ^    ^    ^

 sand  out   of   my   shoes
G|--------------------------------|---------------------------------|
D|--------------------------------|---------------------------------|
A|5-------------------5---5---4---|3---3---3-------3---2---0--------|
E|--------------------------------|----------------------------3----|
 ^    ^    ^    ^    ^    ^    ^    ^

   I'm running from  the law           or they'll
G|--------------------------------|---------------------------------|
D|--------2-------2---2-------2---|0---0---0-----------0---0---0----|
A|--------------2-----------------|---------------------------------|
E|0-------------------------------|---------------------------------|
 ^    ^    ^    ^    ^    ^    ^    ^

 put me       inside
G|--------------------------------|---------------------------------|
D|--------------------------------|---------------------------------|
A|2---2---2---2-------2---2---1---|0---0---4---4---5---5---7\-------|
E|--------------------------------|---------------------------------|
 ^    ^    ^    ^    ^    ^    ^    ^

 Baby  won't you let me    have a little  time  to  hide
G|--------------------------------|---------------------------------|
D|----------------0---0-----------|------------------------0---2----|
A|--------2---3---------------0---|------------2---3----------------|
E|3---3---------------------------|---------------------------------|
 ^    ^    ^    ^    ^    ^    ^    ^


G|--------------------------------|---------------------------------|
D|--------2-------2---2---0---1---|2-------2-------0---2---0--------|
A|----2---------2-----------------|----2------------------------2---|
E|--------------------------------|---------------------------------|
 ^    ^    ^    ^    ^    ^    ^    ^

 Baby  won't you let me    have a little  time  to  hide
G|--------------------------------|---------------------------------|
D|----------------0---0-----------|------------------------0---2----|
A|--------2---3---------------0---|------------2---3----------------|
E|3---3---------------------------|---------------------------------|
 ^    ^    ^    ^    ^    ^    ^    ^


G|--------------------------------|---------------------------------|
D|--------2-------2---2---0---2---|--------2-----------2---0--------|
A|----2---------2-----------------|----2-----------------------2----|
E|--------------------------------|---------------------------------|
 ^    ^    ^    ^    ^    ^    ^    ^

 Baby  won't you let me  have a little  time
G|--------------------------------|---------------------------------|
D|----------------0---0-----------|---------------------------------|
A|--------2---3---------------0---|---------------------------------|
E|3-------------------------------|---------------------------------|
 ^    ^    ^    ^    ^    ^    ^    ^

 Baby  won't you let me  have a little  time
G|--------------------------------|---------------------------------|
D|----------------0---0-----------|---------------------------------|
A|--------2---3---------------0---|-----------------------/7--------|
E|3-------------------------------|---------------------------------|
 ^    ^    ^    ^    ^    ^    ^    ^

 Baby  won't you let me  have a little  time
G|--------------------------------|-----------------------/9--------|
D|----------------0---0-----------|---------------------------------|
A|--------2---3---------------0---|---------------------------------|
E|3---3---------------------------|---------------------------------|
 ^    ^    ^    ^    ^    ^    ^    ^

             to  hide
G/6-------------------------------|---------------------------------|
D|--------------------------------|----------------2---0------------|
A|----------------0---------------|------------------------2--------|
E|--------------------------------|--------0------------------------|
 ^    ^    ^    ^    ^    ^    ^    ^


G|--------------------------------|---------------------------------|
D|--------------------------------|---------------------------------|
A|----------------2---0-----------|---------------------------------|
E|------------------------3-------|0--------------------------------|
 ^    ^    ^    ^    ^    ^    ^    ^

Almost there ...

Sign in to get your own page with links to favourite songs and more. You are just one click away...

Login with Facebook Login with Google