The World Tonight by Paul McCartney

The World Tonight chords by Paul McCartney

Guitar chords with lyrics

Song name: The World Tonight
Artist: Paul McCartney
Album: Flaming Pie  (1997)
Writer: Paul McCartney
Transcribed by: Don Bowlby
1/21/98


Intro:
                  Am
E-------2---------------1-----------0-----------------------------
B-----0----0---0------0---0----0----1------3b-1-3b-1---repeat-----
G---0--------0------0-------0-------2-----------------------------
D-4---------------3-----------------2-----------------------------
A-----------------------------------0-----------------------------
E-----------------------------------------------------------------

VERSE:
Am
I saw you sitting at the ...
C              D
Everybody, everybody ...
Am
I saw you ...
Am
I saw you swaying to ...
C                      D
Caught you playing, caught you ....
Am
I saw you ....

BRIDGE:
Em      Am
I don't care ...
Em        Am
I go back so far, I'm ...
Em        Am
It doesn't matter ...
Em                 G
They're giving the ...

CHORUS:
Am
I can see the world ....

VERSE:
I heard you listening to ....

BRIDGE:
Never mind, what they want .....

CHORUS:
Am
I can see the world ....

F  G  F  Am

F  G

E---------------------------------
B---------------------------------
G-----------------------0-0-------
D----------------0h-2-2-----------
A---------1h-2-2------------------
E--2h-3-3-------------------------


E-------2---------------1----------
B-----0----0---0------0---0----0---
G---0--------0------0-------0------ (4 times)
D-4---------------3----------------
A----------------------------------
E----------------------------------

VERSE:
I saw you hiding from a flock ....

Bass line after "the ground would swallow you":

D--------------------
A--------------------
E--0--2--3--4--5-----


Repeat Bridge and Chorus


donny@ptd.net
corrections/additions welcome

Other versions of The World Tonight

Alternative guitar chords and tabs for The World Tonight by Paul McCartney

Find guitar tabs and chords

A B C D E F G H I J K L M N O P Q R S T U V W X Y Z #