Log in

One click and you are in

Login with Facebook Login with Google

Why sign up and log in

Guitar Tabs Explorer
Paul McCartney bass tabs for Reception

Bass tabs

0:13


 G|--------------------------------|--------------------------------|
 D|--------------5-----------------|--------------5-----------------|
 A|--------2-5-7---7/--5-7-5-7-575-|--------2-5-7---7/--5-7-5-7-575-|
 E|0-2-3-5------------------------7|0-2-3-5------------------------7|
 G|--------------------------------|--------------------------------|
 D|--------------5-----------------|--------------5-----------------|
 A|--------2-5-7---7/--5-7-5-7-575-|--------2-5-7---7/--5-7-5-7-575-|
 E|0-2-3-5------------------------7|0-2-3-5------------------------7|


 G|--------------------------------|--------------------------------|
 D|--------------5-----------------|--------------5-----------------|
 A|--------2-5-7---7/--5-7-5-7-575-|--------2-5-7---7/--5-7-5-7-575-|
 E|0-2-3-5------------------------7|0-2-3-5------------------------7|


 G|--------------------------------|--------------------------------|
 D|--------------5-----------------|--------------5-----------------|
 A|--------2-5-7---7/--5-7-5-7-575-|--------2-5-7---7/--5-7-5-7-575-|
 E|0-2-3-5------------------------7|0-2-3-5------------------------7|


 G|--------------------------------|--------------------------------|
 D|--------------5-----------------|--------------5-----------------|
 A|--------2-5-7---7/--5-7-5-7-575-|--------2-5-7---7/--5-7-5-7-575-|
 E|0-2-3-5------------------------7|0-2-3-5------------------------7|

           (Fade)

 G|--------------------------------|--------------------------------|
 D|--------------5-----------------|--------------------------------|
 A|--------2-5-7---7/--5-7-5-7-5---|--------------------------------|
 E|0-2-3-5-------------------------|--------------------------------|

Reception bass tab

Paul McCartney bass tabs for Reception "Reception" is the opening track on Wing's 1979 album "Back To The Egg".

Almost there ...

Sign in to get your own page with links to favourite songs and more. You are just one click away...

Login with Facebook Login with Google