Log in

One click and you are in

Login with Facebook Login with Google

Why sign up and log in

Guitar Tabs Explorer
Paul McCartney chords for Ram on

Guitar chords with lyrics

Album: Ram 1971
Tabber: d lee (vargasdude@yahoo.com)

This song should be played on a ukulele in the key of
C. Strings tuned to G, C, E, and A. The tab already
the chords at the end a bit off key so this should fix
it (I hope). I'm just a beginner at the ukulele but
I've always wanted to figure out this song by Paul.
I'm sure someone could play it on an acoustic, but it
just wouldn't compliment the simplicity of the song.
Thanks to 'David Rush'<stupidicus@hotmail.com> for the
original format of this strum thingy.

		beat/clap  2, 3, 4
A-------3-3----------------------|
E--3-4--1-1----------------------|
C-------1-1----------------------|
G-------1-1----------------------|

A------3-------------------------|
E--3-4-1----strum chord up/down--|
C------1-------------------------|
G------1-------------------------|

A------1-------------------------|
E--3-4-1----strum chord up/down--|
C------1-------------------------|
G------1-------------------------|

A--3-----------------------------|
E--1----strum chord up/down------|
C--1-----------------------------|
G--1-----------------------------|

A--1-----------------------------|
E--1----strum chord up/down------|
C--1-----------------------------|
G--1-----------------------------|

A--3-3---0-0-0-------3-3--0-0-0--|
E--0-0---1-1-1-------0-0--1-1-1--|
C--0-0---0-0-0-------0-0--0-0-0--|
G--0-0---2-2-2-------0-0--2-2-2--|

A--3-3---0-0-0-------3--0--3-----|
E--0-0---1-1-1-------0--1--0-----|
C--0-0---0-0-0-------0--0--0-----|
G--0-0---2-2-2-------0--2--0-----|

Well thats it. I hope its close. Just over and over.

Almost there ...

Sign in to get your own page with links to favourite songs and more. You are just one click away...

Login with Facebook Login with Google