Log in

One click and you are in

Login with Facebook Login with Google

Why sign up and log in

Guitar Tabs Explorer
Paul McCartney bass tabs for My love

Bass tabs

Paul Mccartney - My love (Red Rose Speedway 1973)
Bass played by Denny Laine.
Written by Paul Mccartney
tabbed by Hugo Geurdes (hugieboss@hotmail.com)
2004

---------------------------------------------------------------------------
------------12/-/------------------/---------------------/--------------------
---------------------------------------------------------5---3-------------
--6-------------/--6---------------/--5------3h5---------/----------6---5-----

----------------------------------------------------------------------------
----------------/------------------/---------------------/---------------------
------------------------------------2--2222222222222------------------------
--3----1h3------/--5------6--------/---------------------/--1---1------------1-

-----------------------------7/----------------------------------------10--
-----5-(5)3-----/------------------/---------------------/---------------------
------------5-3---1-----1---------------------------------------------------
--3-------------/------------------/--1------1-1-------1//--6------------------

----------------------------------------------------------------------------
-------------8-/------------------/---------------------/-----5---------------
-----------------------------------/5-5-3-3---------------------------------
--6-------------/--5-----5-5-------/----------6-6-5-5----/--3-----3-3-3---3----

----------------------------------------------------------------------------
----------------/------------------/---------------------/------5-----3--------
-------------------------------------------------------------------.--5-----
-5-5-5-5-6-6-6-6/-777-777-77777777-/--1----1-------------/--3------------.-----

----------------------------------------------------------------------------
----------------/------------------/-----------3-------2-/--3------------------
--1----1--1-------------------------------/5---3---3----------3------------
----------------/--1----1-1-1--1-2-/--3------------------/----------6--5---3-5-

----------------------------------------------------------------------------
----------------/------------------/-----------3---------/--3------------------
------------------------------------------55---3---3-3---------3----0-------
-6-6-6-6-5-5-5-5/-1-1-3-3-5-5-5-1-5/--3------------------/----------------3-5--

----------------------------------------------------------------------------
----------------/------------------/---------------------/---------------------
-------------------------------0----1---------------0----1---1-1-1-1-1-1-1--
--6-6-6-6---8--/--1------1--3-----/-------------1--3----/---------------------

----------------------------------------------------------------------------
----------------/----3-------------/---------------------/---------------------
---------------3-5----3-35--------------------------------------------------
--5--5-5-5-5-5--/-----------6-5-5--/--3-3-3-3-3-3-3-3----/--5-5-5-5-6-6-6-6----

----------------------------------------------------------------------------
----------------/------------------/-----5--55-3---------/---------------------
-----------------------------------------------55---------------------------
-77777777777777-/--1--1------------/--3------------------/--6-----6----6------

----------------------------------------------------------------------------
----------------/--------------12-/---------------------/---------------------
-------------------------------------------------------------------------3--
--1--1-1-1--1---/--6---------------/--6------------------/--5-------5----------

----------------------------------------------------------------------------
----------------/-----5------------/---------------------/---------------------
-5-5-3-3--------------------------------------------------------------------
---------6-6-5-5/--3----3--3-3-3--3/--5-5-5-5-6-6-6-6----/--7777777777777777---

-----------------------------------------------5/7-5------------------------
----------------/-----5------------/-------------------5-/---------------------
----------------------------5------1---1-----------------------------------
--1---1---------/--3---------------/---------------------/--1---1-1-1-----1-1--

----------------------------------------------------------------------------
-------3--------/------------------/---------------------/---------------------
---------3--3-3---5---3---0-------------------------------------------------
--3--3----------/--------------3-5-/--6-------8......----/--1-1-1-1--5-5-5-5---

----------------------------------------------------------------------------
----------------/------------------/---------------------/---------------------
----------------------------------------------------------------------------
-6-6-6-6-7-7-7-7/--1---------------/---------------------/---------------------

Almost there ...

Sign in to get your own page with links to favourite songs and more. You are just one click away...

Login with Facebook Login with Google