Log in

One click and you are in

Login with Facebook Login with Google

Why sign up and log in

Guitar Tabs Explorer
Paul McCartney tabs for Maybe im amazed

Guitar tabs

Maybe I'm Amazed (Paul McCartney)


Note to archivist:  This file is a variation
of a version previously submitted by
Glen Macon (macon@cbmvax.commodore.com) in 1992.
This version reflects the way I've played the
song since 1986 -- it contains additional chords,
outright chord changes and a (basic) tabbed intro
and solo. - Stephen (sdemkin@dcccnet.dccc.edu)

Intro (riff):

  no chord                 A chord diagramBb majorBb etc....
e---------------------------------
B---------------------------------
G----------------0-1-2------------
D------0-1-2-3-4------------------
A--3-4----------------------------
E---------------------------------
   1 + 2 + 3 + 4 + 1 +     "Maybe I'm.....


Verse 1


A chord diagramBb majorBb          A chord diagramFF                    A chord diagramC majorC               A chord diagramG+G
Maybe I'm a-mazed at the way ....
A chord diagramBb majorBb          F/A(bass)          C(tacet)
Maybe I'm a-fraid of the ....(intro riff).
A chord diagramBb majorBb          A chord diagramFF                    A chord diagramC majorC                A chord diagramG+G
Maybe I'm a-mazed at the way ...
A chord diagramBb majorBb           F/A(bass)
Hung me ...
A chord diagramAbAb                       Eb/G(bass)   A chord diagramC majorC        A chord diagramC majorC / / /
Maybe I'm a-mazed at ....


Chorus


A chord diagramD MajorD          A chord diagramDmaj7Dmaj7              A chord diagramD7D7
Maybe I'm a man,  ...
(A chord diagramD7D7)   A chord diagramD6D6
In the middle of ....
A chord diagramG+G               A chord diagramGmaj7Gmaj7  A chord diagramG+G     D(tacet) A chord diagramD MajorD A chord diagramDmDm A chord diagramD MajorD A chord diagramD MajorD A chord diagramD MajorD A chord diagramDmDm A chord diagramD MajorD
That he doesn't .....1  2 + 3 + 4  +
A chord diagramD MajorD          A chord diagramDmaj7Dmaj7                  A chord diagramD7D7
Maybe I'm a man, ....
(A chord diagramD7D7)      A chord diagramD6D6
Who could ever ....
A chord diagramG+G              A chord diagramGmaj7Gmaj7   A chord diagramG+G     D(tacet)Dm(tacet)Gm7(tacet)A7(tacet)
Baby won't you ....




Solo

  A chord diagramBb majorBb        A chord diagramFF            A chord diagramC majorC      A chord diagramG+G

e----1---1--3--1---------0-1-0---------|
B--3---3----------3--1----------3-0----|
G-----------------------------------0--|
D--------------------------------------|  PART I
A--------------------------------------|
E--------------------------------------|

  A chord diagramBb majorBb        A chord diagramFF           A chord diagramC majorC (tacet)intro riff

e----1---1--3--1---------0-------------|
B--3---3----------3--1-----1-----------|
G----------------------------0---------|
D------------------------------2-------|  PART II    (repeat PART I
A--------------------------------------|         then go to PART III below)
E--------------------------------------|

  A chord diagramBb majorBb      F/A(bass)   A chord diagramAbAb     Eb/G(bass) A chord diagramC majorC

e-----------------------------------------------------5-3-|
B--3-4-3---1----------1-2-1-----------------------3-5-----|
G-------------2---------------3-0-------------3-5---------|
D----------------3----------------1-------3-5-------------| PART III
A---------------------------------------3-----------------|
E---------------------------------------------------------|

return to chorus after solo


Verse 2 (rhythm guitar should scrape or mute strings during this verse).

A chord diagramBb majorBb          A chord diagramFF                       A chord diagramC majorC               A chord diagramG+G
Maybe I'm a-mazed at the way ....
A chord diagramBb majorBb          F/A(bass)          A chord diagramC majorC (tacet)
Maybe I'm a-fraid of the way .... (intro riff)
A chord diagramBb majorBb          A chord diagramFF                    A chord diagramC majorC               A chord diagramG+G
Maybe I'm a-mazed at the ...
A chord diagramBb majorBb                F/A(bass)
Right me when ....
A chord diagramAbAb                    Eb/G(bass)     A chord diagramC majorC
Maybe I'm amazed at the way .....(fade over chorus chords
                                                and vocal ad lib).

Other versions of Maybe I'm Amazed

Maybe i'm amazedChords

Almost there ...

Sign in to get your own page with links to favourite songs and more. You are just one click away...

Login with Facebook Login with Google