Log in

One click and you are in

Login with Facebook Login with Google

Why sign up and log in

Guitar Tabs Explorer
Paul McCartney bass tabs for Long haired lady

Bass tabs

Chorus: : 00:06
G|---------------------------------|---------------------------------|
D|--------2-------5-------2--------|---------------------------------|
A|3--------------------------------|--------2-------5-------2--------|
E|---------------------------------|3--------------------------------|

G|--------------------9------------|---------------------------------|
D|---------/--9--------------------|---------------------------------|
A|7--------------------------------|----3---2------------------------|
E|---------------------------------|------------3---0----------------|

G|---------------------------------|---------------------------------|
D|--------2-------5-------2---\----|---------------------------------|
A|3--------------------------------|--------2-------3-------4--------|
E|---------------------------------|3--------------------------------|

G|---------------------------------|---------------------------------|
D|--------4-------7-------4--------|----------------5----------------|
A|5---------------------------5----|4-----------7--------------------|
E|---------------------------------|---------------------------------|

G|---------------------------------|----------------|
D|---------------------------------|----------------| * 4 bars instead of 8
A|3-----------5---6----------------|----------------|
E|---------------------------------|----------------|

G|---------------------------------|---------------------------------|
D|8-*------------------------------|------------1-----------3---4----|*2 notes
A|6-*------------------------------|--------------------5------------|in the
E|---------------------------------|3--------------------------------|same time

G|---------------------------------|
D|---------------------------------|
A|---------------------------------|
E|3--------------------------------|

Verse 1:
G|---------------------------------|---------------------------------|
D|---------------------------------|------------4---5----------------|
A|--------0-------1-------3---4----|5---0-7-----------------5--------|
E|1--------------------------------|----------------------------3----|

G|---------------------------------|---------------------------------|
D|---------------------------------|------/-4---5--------------------|
A|------------0---1-------3---4----|5--------------------------------|
E|1-----/-3------------------------|---------------------------------|

G|---------------------------------|------------------------3--------|
D|---------------------------------|------------3-4-5----------------|
A|--------0-------1-------3---4----|5-----0-7------------------------|
E|1--------------------------------|----------------------------3----|

G|---------------------------------|---------------------------------|
D|---------------------------------|------/-4---5--------------------|
A|------------0---1-------3---4----|5--------------------------------|
E|1----/--3------------------------|---------------------------------|


Chorus:
G|---------------------------------|--------2-------3-------5--------|
D|------------------------3--------|5--------------------------------|
A|3-------5-------6----------------|---------------------------------|
E|---------------------------------|---------------------------------|

G|7--------------------------------|---------------------------------|
D|--------9-------5----------------|---------------------------------|
A|------------------------5--------|--------2-------5-------2--------|
E|---------------------------------|3--------------------------------|

G|---------------------------------|--------2-------3-------5--------|
D|------------------------3--------|5--------------------------------|
A|3-------5-------6----------------|---------------------------------|
E|---------------------------------|---------------------------------|

G|7--------------------------------|---------------------------------|
D|--------9-------5----------------|---------------------------------|
A|------------------------5---\----|---------------------------------|
E|---------------------------------|3--------------------------------|


Verse 2:
G|---------------------------------|---------------------------------|
D|---------------------------------|------------4---5----------------|
A|--------0-------1-------3---4----|5---0-7-----------------5--------|
E|1--------------------------------|----------------------------3----|

G|---------------------------------|---------------------------------|
D|---------------------------------|------/-4---5--------------------|
A|------------0---1-------3---4----|5--------------------------------|
E|1-----/-3------------------------|---------------------------------|

G|---------------------------------|------------------------3--------|
D|---------------------------------|------------4---5----------------|
A|--------0-------1-------3---4----|5-----0-7------------------------|
E|1--------------------------------|----------------------------3----|

G|---------------------------------|---------------------------------|
D|---------------------------------|------/-4---5--------------------|
A|------------0---1-------3---4----|5--------------------------------|
E|1----/--3------------------------|---------------------------------|


Chorus:
G|---------------------------------|--------2-------3-------5--------|
D|------------------------3--------|5--------------------------------|
A|3-------5-------6----------------|---------------------------------|
E|---------------------------------|---------------------------------|

G|7--------------------------------|---------------------------------|
D|--------9-------5----------------|---------------------------------|
A|------------------------5---\----|--------0-------1-------2--------|
E|---------------------------------|3--------------------------------|

G|---------------------------------|--------2-------3-------5--------|
D|------------------------3--------|5--------------------------------|
A|3-------5-------6----------------|---------------------------------|
E|---------------------------------|---------------------------------|

G|7--------------------------------|---------------------------------|
D|--------9-------5----------------|---------------------------------|
A|------------------------5---\----|---------------------------------|
E|---------------------------------|3--------------------------------|


Chorus:
G|---------------------------------|---------------------------------|
D|5---------------5----------------|5---------------5----------------|
A|--------5---------------5--------|--------5---------------5--------|
E|---------------------------------|---------------------------------|

G|---------------------------------|---------------------------------|
D|5---------------5----------------|5---------------5----------------|
A|--------5---------------5--------|--------5---------------5--------|
E|---------------------------------|---------------------------------|

G|---------------------------------|---------------------------------|
D|5---------------5----------------|5---------------5----------------|
A|--------5---------------5--------|--------5---------------5--------|
E|---------------------------------|---------------------------------|

G|---------------------------------|---------------------------------|
D|5---------------5----------------|5---------------5----------------|
A|--------5---------------5--------|--------5---------------5--------|
E|---------------------------------|---------------------------------|

G|---------------------------------|---------------------------------|
D|5---------------5----------------|5---------------5----------------|
A|--------5---------------5--------|--------5---------------5--------|
E|---------------------------------|---------------------------------|

G|---------------------------------|---------------------------------|
D|5---------------5----------------|5---------------5----------------|
A|--------5---------------5--------|--------5---------------5--------|
E|---------------------------------|---------------------------------|

G|---------------------------------|---------------------------------|
D|5---------------5----------------|5---------------5----------------|
A|--------5---------------5--------|--------5---------------5--------|
E|---------------------------------|---------------------------------|

G|---------------------------------|---------------------------------|
D|5---------------5----------------|5---------------5----------------|
A|--------5---------------5--------|--------5---------------5--------|
E|---------------------------------|---------------------------------|

G|---------------------------------|---------------------------------|
D|5---------------5----------------|5---------------5----------------|
A|--------5---------------5--------|--------5---------------5--------|
E|---------------------------------|---------------------------------|

G|---------------------------------|---------------------------------|
D|5---------------5----------------|5---------------5----------------|
A|--------5---------------5--------|--------5------------------------|
E|---------------------------------|---------------------------------|

Interlude:
G|--------------/-9---9------------|---------------------------------|
D|------/-9------------------------|---------------------------------|
A|7--------------------------------|----3---2------------------------|
E|---------------------------------|0-----------3---0----------------|


Chorus:
G|---------------------------------|---------------------------------|
D|--------2-------5-------2---\----|---------------------------------|
A|3--------------------------------|--------2-------5-------2--------|
E|---------------------------------|3--------------------------------|

G|--------------------9------------|---------------------------------|
D|---------/--9--------------------|---------------------------------|
A|7--------------------------------|----3---2------------------------|
E|---------------------------------|------------3---0----------------|

G|---------------------------------|---------------------------------|
D|--------2-------5-------2---\----|---------------------------------|
A|3--------------------------------|--------2-------3-------4--------|
E|---------------------------------|3--------------------------------|

G|---------------------------------|---------------------------------|
D|--------4-------7-------4--------|----------------5----------------|
A|5---------------------------5----|4-----------7--------------------|
E|---------------------------------|---------------------------------|

G|---------------------------------|----------------|
D|---------------------------------|----------------| * 4 bars instead of 8
A|3-----------5---6----------------|----------------|
E|---------------------------------|----------------|

G|---------------------------------|---------------------------------|
D|8-*------------------------------|------------1-----------3---4----|*2 notes
A|6-*------------------------------|--------------------5------------| in the
E|---------------------------------|3--------------------------------| same time

G|---------------------------------|
D|---------------------------------|
A|---------------------------------|
E|3--------------------------------|


Chorus: (outro reapeat) :
G|---------------------------------|---------------------------------|
D|5---------------5----------------|5---------------5----------------|
A|--------5---------------5--------|--------5---------------5--------|
E|---------------------------------|---------------------------------|


************************************

| / Slide up
| \ Slide down
| * Natural harmonic

Almost there ...

Sign in to get your own page with links to favourite songs and more. You are just one click away...

Login with Facebook Login with Google