Log in

One click and you are in

Login with Facebook Login with Google

Why sign up and log in

Guitar Tabs Explorer
Paul McCartney tabs for Little willow

Guitar tabs

^ÓLittle Willow^Ô
Written and Performed by Paul McCartney
(Flaming Pie ^Ö 1997)
Tabbed by Lindsay Stamhuis (macca05@beatlemail.com)

This is my first shot at tabbing, but I think I did a fairly good job! This
song was already archived (by Phil Callan) but it was only the chords, so I
listened very closely to the song to get the finger-picking to sound right.
The chords below are all what he came up with, except in his tab, the A chord diagramEm/DEm/D
was written as A chord diagramAsus4Asus4 ^Ö I think the way I^Òve written it is the correct way,
his was just one string off.

For the sake of efficiency, I^Òm only going to tab the first and second
verses and the chorus, because it^Òs very repetitious. The basic structure
goes like this:

-Intro
-Verse 1
-Verse 2
-Chorus
-Verse 3 (same as verse 1)
-Verse 4 (same as verse 1)
-Instrumental 1 (same as verse 2)
-Chorus
-Verse 1
-Verse 2
-Instrumental 2

xxxxx


Intro:

     A chord diagramD MajorD	 A chord diagramEm/DEm/D	   A chord diagramD MajorD       A chord diagramEm/DEm/D
-------2-------3-------2-------3
-----3-------5-------3-------5--
---2-------4-------2-------4----
-0-------0-------0-------0------
--------------------------------
--------------------------------

Verse 1:
     A chord diagramD MajorD	 A chord diagramEm/DEm/D	   A chord diagramD MajorD       A chord diagramEm/DEm/D    A chord diagramD MajorD	   A chord diagramEm/DEm/D    A chord diagramD MajorD     	 A chord diagramEm/DEm/D
-------2-------3-------2-------3-------2-------3-------2-------3
-----3-------5-------3-------5-------3-------5-------3-------5--
---2-------4-------2-------4-------2-------4-------2-------4----
-0-------0-------0-------0-------0-------0-------0-------0------
----------------------------------------------------------------
----------------------------------------------------------------

     Bend...         winds...        hard and cold tonight


Verse 2:
     A chord diagramD MajorD	 A chord diagramEm/DEm/D	   A chord diagramD MajorD       A chord diagramEm/DEm/D 	 A chord diagramD MajorD	   A chord diagramEm/DEm/D    A chord diagramD MajorD       A chord diagramD7D7
-------2-------3-------2-------3-------2-------3-------2-------2
-----3-------5-------3-------5-------3-------5-------3-------1--
---2-------4-------2-------4-------2-------4-------2-------2----
-0-------0-------0-------0-------0-------0-------0-------0------
----------------------------------------------------------------
----------------------------------------------------------------

     Life...         Nobody...       Willow, hold on tight


Chorus:
     A chord diagramG+G       A chord diagramG+G         A chord diagramA augmentedA       A chord diagramA augmentedA       A chord diagramA augmentedA       A chord diagramA augmentedA         A chord diagramD MajorD       A chord diagramD MajorD
-----------------------------------------------------------2-------2---
-------------------------2-------2-------2-------2-------3-------3-----
-------0-------0-------2-------2-------2-------2-------2-------2-------
-----0-------0-------2-------2-------2-------2-------0-------0---------
---2-------2-------0-------0-------0-------0---------------------------
-3-------3-------------------------------------------------------------

     Nothing^Òs...  shake...        Take...       a-  way...

     A chord diagramG+G       A chord diagramG+G         A chord diagramA augmentedA       A chord diagramA augmentedA       A chord diagramA augmentedA       A chord diagramA augmentedA         A chord diagramD MajorD
-----------------------------------------------------------3-
-------------------------2-------2-------2-------2-------3---
-------0-------0-------2-------2-------2-------2-------2-----
-----0-------0-------2-------2-------2-------2-------0-------
---2-------2-------0-------0-------0-------0-----------------
-3-------3---------------------------------------------------

     No one^Òs...   break...      It only...          way, hey


Verse 3 (same as verse 1)

Sleep, little ...
Peace, little ...
Time will heal...


Verse 4 (same as verse 1)

Grow to the ...
Now and ...
Always came ...


Verse 1 (Instrumental - with ^Ólittle willow^Ô and ^Óah^Òs^Ô in the background)


Chorus


Verse 1


Verse 2


Verse 1 (Instrumental)


Any questions or comments, please e-mail me!

Other versions of Little Willow

Little willowChords

Almost there ...

Sign in to get your own page with links to favourite songs and more. You are just one click away...

Login with Facebook Login with Google