Let Me Roll It by Paul McCartney

Let Me Roll It tab by Paul McCartney

Guitar tabs

Bass line & chorus:
 A    F#m    A    F#m    E   A    E   A    E
----------------------------------------------------------------------
----------------------------------------------------------------------
----------------------------------------------------------------------
--------2-4--6-4--2--------2-4--6-4--2-------------2-------------2----
--0---4--------------0---4-------------------0---4---------0---4------
---------------------------------------0---4---------0---4---------0--


Verse:
           F#m              E
--2-3-2-0-2--0------------(2)---2-3-2-0-2--0--------------------------
--2-3-2-0-2--0--2--0------(2)---2-3-2-0-2--0--2--0-----(5)------------
----------------2--0--------------------------2--0-----(4)------------
----------------------------------------------------------------------
----------------------------------------------------------------------
----------------------------------------------------------------------
 ^^^^^^^^^
 hammer-ons and pull-offs

E           F#m
You gave me ....
E             F#m
You gave me loving in ...
A    F#m      A
I can’t tell ...
  F#m       E
My heart is ...
    A
Let me roll it
E   A
Let me roll ...

I want to tell you and ....

Other versions of Let Me Roll It

Alternative guitar chords and tabs for Let Me Roll It by Paul McCartney

Find guitar tabs and chords

A B C D E F G H I J K L M N O P Q R S T U V W X Y Z #