Log in

One click and you are in

Login with Facebook Login with Google

Why sign up and log in

Guitar Tabs Explorer
Paul McCartney tabs for Im carrying

Guitar tabs with lyrics

By:  Paul McCartney
Album:  London Town

Transcribed by Aaron K <koegda@uleth.ca>

Notes: The whole song really only uses two repeated themes: one for the

verse and
one for the chorus.

#1 Verse

 ||----0-----0-----|----0-----0-----|----0-----0-----|----0-----0----|
 ||--12----12----12|--11----11----11|--10----10----10|--0-----0-----0|
 ||13----13----13--|12----12----12--|11----11----11--|11----11----11-|
 ||----------------|----------------|----------------|---------------|
 ||----------------|----------------|----------------|---------------|
 ||----------------|----------------|----------------|---------------|

#2 Chorus

 |----0-----0-----|----0-----0-----|
 |--12----12----12|--10----0-----0-|
 |13----13----13--|11----11----11--|
 |----------------|----------------|
 |----------------|----------------|
 |----------------|----------------|



     By Dawn's first light . . .

 ||----0-----0-----|----0-----0-----|----0-----0-----|----0-----0----|
 ||--12----12----12|--11----11----11|--10----10----10|--0-----0-----0|
 ||13----13----13--|12----12----12--|11----11----11--|11----11----11-|
 ||----------------|----------------|----------------|---------------|
 ||----------------|----------------|----------------|---------------|
 ||----------------|----------------|----------------|---------------|

       With my carnation hidden ...                              I'm

||----0-----0-----|----0-----0-----|----0-----0-----|----0-----0----|
||--12----12----12|--11----11----11|--10----10----10|--0-----0-----0|
||13----13----13--|12----12----12--|11----11----11--|11----11----11-|
||----------------|----------------|----------------|---------------|
||----------------|----------------|----------------|---------------|
||----------------|----------------|----------------|---------------|


  carrying                       Something                        I'm

 |----0-----0-----|----0-----0-----|----0-----0-----|----0-----0---0-|
 |--12----12----12|--10----0-----0-|--12----12----12|--10----0-------|
 |13----13----13--|11----11----11--|13----13----13--|11----11----11--|
 |----------------|----------------|----------------|----------------|
 |----------------|----------------|----------------|----------------|
 |----------------|----------------|----------------|----------------|


  carrying         something     for you

 |----0-----0-----|----0-----0-----|----0-----0-----|
 |--12----12----12|--10----0-----0-|--12----12----12|
 |13----13----13--|11----11----11--|13----13----13--|
 |----------------|----------------|----------------|
 |----------------|----------------|----------------|
 |----------------|----------------|----------------|


       A chord diagramA augmentedA long time no see baby . . .

||----0-----0-----|----0-----0-----|----0-----0-----|----0-----0----|
||--12----12----12|--11----11----11|--10----10----10|--0-----0-----0|
||13----13----13--|12----12----12--|11----11----11--|11----11----11-|
||----------------|----------------|----------------|---------------|
||----------------|----------------|----------------|---------------|
||----------------|----------------|----------------|---------------|


      And if my reappearance . . .                               I'm

||----0-----0-----|----0-----0-----|----0-----0-----|----0-----0----|
||--12----12----12|--11----11----11|--10----10----10|--0-----0-----0|
||13----13----13--|12----12----12--|11----11----11--|11----11----11-|
||----------------|----------------|----------------|---------------|
||----------------|----------------|----------------|---------------|
||----------------|----------------|----------------|---------------|


  carrying                       Something                        I'm

 |----0-----0-----|----0-----0-----|----0-----0-----|----0-----0---0-|
 |--12----12----12|--10----0-----0-|--12----12----12|--10----0-------|
 |13----13----13--|11----11----11--|13----13----13--|11----11----11--|
 |----------------|----------------|----------------|----------------|
 |----------------|----------------|----------------|----------------|
 |----------------|----------------|----------------|----------------|


  carrying         something     for you

 |----0-----0-----|----0-----0-----|----0-----0-----|
 |--12----12----12|--10----0-----0-|--12----12----12|
 |13----13----13--|11----11----11--|13----13----13--|
 |----------------|----------------|----------------|
 |----------------|----------------|----------------|
 |----------------|----------------|----------------|




It's a pretty ad-lib sort of song so you can repeat as many times
as you like and then end off by playing an A chord diagramE MajorE major chord in root
position.

It sounds best (and is probably easiest to play) finger-picked using the
thumb,
first, and middle fingers.  The pattern is t-i-m-t-i-m-t-i.
ⓘ Guitar tab for 'Im Carrying' by Paul McCartney, a male rock artist from Liverpool, England. Paul McCartney was born in 1942. Paul McCartney is known for his philosophical rock/pop music.

Almost there ...

Sign in to get your own page with links to favourite songs and more. You are just one click away...

Login with Facebook Login with Google