Log in

One click and you are in

Login with Facebook Login with Google

Why sign up and log in

Guitar Tabs Explorer
Paul McCartney bass tabs for Heaven on a sunday

Heaven On A Sunday bass tab - Paul McCartney

Paul McCartney bass tabs for Heaven on a sunday

Bass tabs

m/mc_cartney/Heaven_On_A_Sunday.btab

Basstab by Jan Bjorklund, Finland <jani_bjorklund@yahoo.se>
You are welcome to request for basstabs!
Fingering and positions as suggested by TablEdit, please use common sense!

TablEdited by Jan Bjorklund

Tuning : E A D G 	Time Signature: 4/4

 |    |    |    |     |    |    |    |
||2-----------2--------------------|-2-----------2---2-------4-------||
|*---------------------------------|---------------------2-----------*|
|*---------------------------------|---------------------------------*|
||---------------------------------|---------------------------------||

 |    |    |    |     |    |    |    |
||2-----------2-----------4--------|-2-----------2---2---------------||
|*--------------------2-------2----|---------------------------------||
|*---------------------------------|---------------------------------||
||---------------------------------|---------------------------------||

>1|    |    |    |     |    |    |    |
|-------------------------9--------|-7-----------7---7---7---7-------||
|-7-------------------7------------|---------------------------------*|
|----------------------------------|---------------------------------*|
|-------------10-------------------|---------------------------------||

>2|    |    |    |     |    |    |    |
|----------------------------------|----------------------------------|
|-0-----------0---0----------------|-0-----------0---0----------------|
|----------------------------------|----------------------------------|
|----------------------------------|----------------------------------|

 |    |    |    |     |    |    |    |
|-0-----------0---0----------------|-5-----------5---5----------------|
|----------------------------------|----------------------------------|
|----------------------------------|----------------------------------|
|----------------------------------|----------------------------------|

 |    |    |    |     |    |    |    |
|----------------------------------|-2-----------2---2----------------|
|-2-----------2---2----------------|----------------------------------|
|----------------------------------|----------------------------------|
|----------------------------------|----------------------------------|

 |    |    |    |     |    |    |    |
||0--------------------------------|-5---------------------------2----|
|*----------------3----------------|-----------------2---2------------|
|*---------------------------------|----------------------------------|
||---------------------------------|----------------------------------|

 |    |    |    |     |    |    |    |
|-----------------0---------------||-----------------5----------------|
|---------------------------------*|-3--------------------------------|
|---------------------------------*|----------------------------------|
|---------------------------------||----------------------------------|

 |    |     |    |    |    |
|-------------2----|----------------------------------|
|-2---2------------|----------------------------------|
|------------------|----------------------------------|
|------------------|----------------------------------|

 |    |    |    |     |    |    |    |
|-----------------5-------4--------|-------------2--------------------|
|----------------------------------|-2---2----------------------------|
|----------------------------------|----------------------------------|
|----------------------------------|----------------------------------|

 |    |    |    |     |    |    |    |
|----------------------------------|-------------2---5---2---2--------|
|----------------------------------|-----------------------------2----|
|----------------------------------|----------------------------------|
|----------------------------------|----------------------------------|

 |    |    |    |    >3|    |    |    |
||2-----------2---2----------------|-2-----------2---2---------------||
|*------------------------2--------|-------------------------2-------*|
|*---------------------------------|---------------------------------*|
||---------------------------------|---------------------------------||

 |    |    |    |     |    |    |    |
|-------------------------2--------|-------------------------2-------||
|-0-----------0---0----------------|-0-----------0---0---------------*|
|----------------------------------|---------------------------------*|
|----------------------------------|---------------------------------||

 |    |    |    |     |    |    |    |
|-------------2--------------------|----------------------------------|
|-2---2----------------------------|-3--------------------------------|
|----------------------------------|----------------------------------|
|----------------------------------|----------------------------------|

 |    |    |    |     |    |    |    |
|----------------------------------|-2--------------------------------|
|-3--------------------------------|----------------------------------|
|----------------------------------|----------------------------------|
|----------------------------------|----------------------------------|

 |    |    |    |    >1|    |    |    |
||--------------------------------||-2-----------2-------------------||
|*--------------------------------||---------------------------------*|
|*--------------------------------||---------------------------------*|
||--------------------------------||---------------------------------||

 |



............................................................

Almost there ...

Sign in to get your own page with links to favourite songs and more. You are just one click away...

Login with Facebook Login with Google