Great Day by Paul McCartney

Great Day tab by Paul McCartney

Guitar tabs

Song: Great Day
 Words and music: Paul McCartney
 Album: Flaming Pie
 Transcribed by: Aaron K



 1 +2 + 3 + 4 etc
 |0--0-0-----0-|0--0-0-----0-|0--0-0-----0-|3--3-3-----0-|
 |3--3-3-----3-|3--3-3-----3-|2--2-2-----2-|2--2-2-----2-|
 |4--4-4---4-4-|4--4-4---4-4-|3--3-3---3-3-|3--3-3---3-3-|
 |0------0-----|0------0-----|0------0-----|0------0-----|
 |-------------|-------------|-------------|-------------|
 |-------------|-------------|-------------|-------------|
 Pl d u t i d  etc.

              4 + 1  + 2 + 3 + 4  1 + 2 3 + 4
 |0--0-0-----3-|0--0-0-----0-0|0------0-0-0---0---|0---0--0---0-|
 |1--1-1-----1-|1--1-1-----1-1|0------0-0-0---0---|0---0--0---0-|
 |2--2-2---2-2-|2--2-2---2-2-2|1------1-1-1---1---|1---1--1---1-|
 |0------0-----|0------0------|0-h-2--2-2-0h2-2---|0h2-2--0h2-2-|
 |-------------|--------------|0-h-2--2-2-0h2-2---|0h2-2--0h2-2-|
 |-------------|--------------|0------0-0-0---0---|0---0--0---0-|
        pl d u t i d u d (u)* d u etc.


Notes:

 Pl= pluck all four strings with thumb on bass and index, middle, and
ring fingers
   on top strings
  d= downward stroke with middle and ring fingers
  u= upward stroke with index and middle fingers
  t= thumb
  i= index
(u)*= you sort of strum upwards but you barely catch the strings. It
just
   helps to keep the rhythm going.


 Intro:
 |0--0-0-----0-|0--0-0-----0-|0--0-0-----0-|3--3-3-----0-|
 |3--3-3-----3-|3--3-3-----3-|2--2-2-----2-|2--2-2-----2-|
 |4--4-4---4-4-|4--4-4---4-4-|3--3-3---3-3-|3--3-3---3-3-|
 |0------0-----|0------0-----|0------0-----|0------0-----|
 |-------------|-------------|-------------|-------------|
 |-------------|-------------|-------------|-------------|



 |0--0-0-----3-|0--0-0-----0-0|0------0-0-0---0---|0---0--0---0-|
 |1--1-1-----1-|1--1-1-----1-1|0------0-0-0---0---|0---0--0---0-|
 |2--2-2---2-2-|2--2-2---2-2-2|1------1-1-1---1---|1---1--1---1-|
 |0------0-----|0------0------|0-h-2--2-2-0h2-2---|0h2-2--0h2-2-|
 |-------------|--------------|0-h-2--2-2-0h2-2---|0h2-2--0h2-2-|
 |-------------|--------------|0------0-0-0---0---|0---0--0---0-|


 While you're standing there ....

 |0--0-0-----0-|0--0-0-----0-|0--0-0-----0-|3--3-3-----0-|
 |3--3-3-----3-|3--3-3-----3-|2--2-2-----2-|2--2-2-----2-|
 |4--4-4---4-4-|4--4-4---4-4-|3--3-3---3-3-|3--3-3---3-3-|
 |0------0-----|0------0-----|0------0-----|0------0-----|
 |-------------|-------------|-------------|-------------|
 |-------------|-------------|-------------|-------------|


 It's gonna be ...
 |0--0-0-----3-|0--0-0-----0-0|0------0-0-0---0---|0---0--0---0-|
 |1--1-1-----1-|1--1-1-----1-1|0------0-0-0---0---|0---0--0---0-|
 |2--2-2---2-2-|2--2-2---2-2-2|1------1-1-1---1---|1---1--1---1-|
 |0------0-----|0------0------|0-h-2--2-2-0h2-2---|0h2-2--0h2-2-|
 |-------------|--------------|0-h-2--2-2-0h2-2---|0h2-2--0h2-2-|
 |-------------|--------------|0------0-0-0---0---|0---0--0---0-|



 When you're wide awake . . .

 |0--0-0-----0-|0--0-0-----0-|0--0-0-----0-|3--3-3-----0-|
 |3--3-3-----3-|3--3-3-----3-|2--2-2-----2-|2--2-2-----2-|
 |4--4-4---4-4-|4--4-4---4-4-|3--3-3---3-3-|3--3-3---3-3-|
 |0------0-----|0------0-----|0------0-----|0------0-----|
 |-------------|-------------|-------------|-------------|
 |-------------|-------------|-------------|-------------|



 It's gonna be . . .             And it won't be

 |0--0-0-----3-|0--0-0-----0-0|0---0-0-0---3-|
 |1--1-1-----1-|1--1-1-----1-1|0---0-0-0---0-|
 |2--2-2---2-2-|2--2-2---2-2-2|1---1-1-1---1-|
 |0------0-----|0------0------|0h2-2-2-0h2-2-|
 |-------------|--------------|0h2-2-2-0h2-2-|
 |-------------|--------------|0---0-0-0---0-|



 long . . .
 1+2+3+4+  2+3  1+2
 |--------|--------|--------|--------|--------|--------|
 |--------|--------|--------|--------|--------|--------|
 |--------|--------|--------|--------|--------|--------|
 |2---2-4-|--4-5---|5-4-----|--------|--------|--------|
 |0---0-0-|--0-0---|0-0-----|2---2-4-|--4-5---|5-4-----|
 |--------|--------|--------|0---0-0-|--0-0---|0-0-----|



           It won't be long
 |--------|--------|--------|0--0-0-----0-|0--0-0-----0-|0--0-0-----0-|
 |--------|--------|--------|3--3-3-----3-|3--3-3-----3-|2--2-2-----2-|
 |--------|--------|--------|4--4-4---4-4-|4--4-4---4-4-|3--3-3---3-3-|
 |2---2-4-|--4-5---|5-4-----|0------0-----|0------0-----|0------0-----|
 |0---0-0-|--0-0---|0-0-----|-------------|-------------|-------------|
 |--------|--------|--------|-------------|-------------|-------------|



 |3--3-3-----0-|0--0-0-----3-|0--0-0-----0-0|0------0-0-0---0---|0---0--0---0-|

 |2--2-2-----2-|1--1-1-----1-|1--1-1-----1-1|0------0-0-0---0---|0---0--0---0-|

 |3--3-3---3-3-|2--2-2---2-2-|2--2-2---2-2-2|1------1-1-1---1---|1---1--1---1-|

 |0------0-----|0------0-----|0------0------|0-h-2--2-2-0h2-2---|0h2-2--0h2-2-|

 |-------------|-------------|--------------|0-h-2--2-2-0h2-2---|0h2-2--0h2-2-|

 |-------------|-------------|--------------|0------0-0-0---0---|0---0--0---0-|



 Repeats a couple of times and ends with


 |0--0-0-----0-|0--0-0-----0-|0--0-0-----0-|3--3-3-----0-|
 |3--3-3-----3-|3--3-3-----3-|2--2-2-----2-|2--2-2-----2-|
 |4--4-4---4-4-|4--4-4---4-4-|3--3-3---3-3-|3--3-3---3-3-|
 |0------0-----|0------0-----|0------0-----|0------0-----|
 |-------------|-------------|-------------|-------------|
 |-------------|-------------|-------------|-------------|



 |0--0-0-----3-|0--0-0-----0-0|0---0-0-0---3-|
 |1--1-1-----1-|1--1-1-----1-1|0---0-0-0---0-|
 |2--2-2---2-2-|2--2-2---2-2-2|1---1-1-1---1-|
 |0------0-----|0------0------|0h2-2-2-0h2-2-|
 |-------------|--------------|0h2-2-2-0h2-2-|
 |-------------|--------------|0---0-0-0---0-|

Find guitar tabs and chords

A B C D E F G H I J K L M N O P Q R S T U V W X Y Z #