Log in

One click and you are in

Login with Facebook Login with Google

Why sign up and log in

Guitar Tabs Explorer
Paul McCartney bass tabs for Gotta sing gotta dance

Gotta Sing Gotta Dance bass tab by Paul McCartney

Paul McCartney bass tabs for Gotta sing gotta dance

Bass tabs

m/mc_cartney/GOTTA_SING,GOTTA_DANCE.btab     ;Words & Music by McCartney

Basstab by Jan Bjorklund, Finland <jani_bjorklund@yahoo.se>
You are welcome to request for basstabs!
Fingering and positions as suggested by TablEdit, please use common sense!

TablEdited by Jan Bjorklund

Tuning : E A D G 	Time Signature: 6/4

 |        |        |        |
|------------------------------------------------------------------|
|------------------------------------------------------------------|
|-3----------------------------------------------------------------|
|---------------------------------3--------------------------------|

 |        |        |        |
|------------------------------------------------------------------|
|------------------------------------------------------------------|
|-3-----------------------------------------------3----------------|
|---------------------------------3--------------------------------|

 |        |        |        |
|------------------------------------------------------------------|
|------------------------------------------------------------------|
|-2-------------------------2---------------1-----2----------------|
|------------------------------------------------------------------|

 |        |        |        |
|------------------------------------------------------------------|
|------------------------------------------------------------------|
|------------------------------------------------------------------|
|-0-------------------------0---------------------0----------------|

 |        |        |        |
|------------------------------------------------------------------|
|------------------------------------------------------------------|
|-0----------------------------------------------------------------|
|---------------------------------0-------------------------0------|

 |        |
  |        |
|------------------------------------------------------------------|
|------------------------------------------------------------------|
|-0-------------------------0---------------------0----------------|
|---------------------------------0--------------------------------|

 |        |        |        |

|------------------------------------------------------------------|
|-----------2------------------------------------------------------|
|------------------------------------------------------------------|
|---------------------------------0--------------------------------|

 |        |        |        |
|------------------------------------------------------------------|
|-----------2------------------------------------------------------|
|------------------------------------------------------------------|
|---------------------------------0--------------------------------|

 |        |        |        |
|------------------------------------------------------------------|
|------------------------------------------------------------------|
|-0----------------------------------------------------------------|
|---------------------------------0-------------------------0------|

 |        |
  |        |
|------------------------------------------------------------------|
|------------------------------------------------------------------|
|-0-------------------------0---------------------0----------------|
|---------------------------------0--------------------------------|

 |        |        |        |

|------------------------------------------------------------------|
|-----------2------------------------------------------------------|
|------------------------------------------------------------------|
|---------------------------------0-------------------------0------|

 |        |        |        |
|------------------------------------------------------------------|
|------------------------------------------------------------------|
|-0---------------0------------------------------------------------|
|---------------------------------3---------------3----------------|

 |        |        |        |

|---------------------------------2--------------------------------|
|-----------------2-------------------------------5----------------|
|-3----------------------------------------------------------------|
|------------------------------------------------------------------|

 |        |        |        |
|-5----------------------------------------------------------------|
|-----------------6---------------2---------------5----------------|
|------------------------------------------------------------------|
|------------------------------------------------------------------|

 |        |        |        |
|---------------------------------2--------------------------------|
|-----------------2-------------------------------2----------------|
|-3----------------------------------------------------------------|
|------------------------------------------------------------------|

 |        |
  |        |
|-5---------------2------------------------------------------------|
|---------------------------------2--------------------------------|
|-------------------------------------------------3----------------|
|------------------------------------------------------------------|

 |        |        |        |
|------------------------------------------------------------------|
|-0-----------------------0-----------------------0----------------|
|------------------------------------------------------------------|
|------------------------------------------------------------------|

 |        |        |        |

|------------------------------------------------------------------|
|------------------------------------------------------------------|
|------------------------------------------------------------------|
|-3-----------------------3-----------------------3----------------|

 |        |        |        |
|------------------------------------------------------------------|
|------------------------------------------------------------------|
|-3-----------------------3-----------------------3----------------|
|------------------------------------------------------------------|

 |        |        |        |
|-------------------------2----------------------------------------|
|------------------------------------------------------------------|
|-3-----------------------------------------------4----------------|
|------------------------------------------------------------------|

 |        |        |        |
|------------------------------------------------------------------|
|-0-----------------------0-----------------------0----------------|
|------------------------------------------------------------------|
|------------------------------------------------------------------|

 |        |        |        |
|------------------------------------------------------------------|
|------------------------------------------------------------------|
|-------------------------0-----------------------2----------------|
|-3----------------------------------------------------------------|

 |        |        |        |
|------------------------------------------------------------------|
|------------------------------------------------------------------|
|-3-----------------------3-----------------------3----------------|
|------------------------------------------------------------------|

 |        |        |        |
|------------------------------------------------------------------|
|------------------------------------------------------------------|
|-3-----------------------3-----------------------3----------------|
|------------------------------------------------------------------|

 |        |        |        |
|------------------------------------------------------------------|
|---------------------------------------------------------4--------|
|-------------------------2-----------------------2/---------------|
|-1----------------------------------------------------------------|

 |        |        |        |
|------------------------------------------------------------------|
|-2---------------1-------2----------------------------------------|
|------------------------------------------------------------------|
|------------------------------------------------------------------|

 |        |        |        |
|------------------------------------------------------------------|
|------------------------------------------------------------------|
|-0-------------------------------0--------------------------------|
|-----------------0-------------------------------0----------------|

 |        |
   |        |
|------------------------------------------------------------------|
|------------------------------------------------------------------|
|-0-------------------------------0--------------------------------|
|-----------------0-------------------------------0----------------|

 |        |        |        |
|------------------------------------------------------------------|
|------------------------------------------------------------------|
|-0-------------------------------0--------------------------------|
|-----------------0-------------------------------0----------------|

 |        |        |        |
|------------------------------------------------------------------|
|------------------------------------------------------------------|
|-0-------------------------------0--------------------------------|
|-----------------0-------------------------------0----------------|

 |        |        |        |
|------------------------------------------------------------------|
|------------------------------------------------------------------|
|-3-------------------------------3--------------------------------|
|-----------------3-------------------------------3----------------|

 |        |        |        |
|------------------------------------------------------------------|
|------------------------------------------------------------------|
|-3-------------------------------3--------------------------------|
|-----------------3-------------------------------3----------------|

 |        |        |        |
|------------------------------------------------------------------|
|------------------------------------------------------------------|
|-3-------------------------------3--------------------------------|
|-----------------3-------------------------------3----------------|

 |        |        |        |
|------------------------------------------------------------------|
|------------------------------------------------------------------|
|-3-------------------------------3--------------------------------|
|-----------------3-------------------------------3----------------|

 |        |        |        |
|------------------------------------------------------------------|
|-0-------------------------------0--------------------------------|
|-----------------0-------------------------------0----------------|
|------------------------------------------------------------------|

 |        |
  |        |
|-0-------------------------------0--------------------------------|
|-----------------0------------------------------------------------|
|------------------------------------------------------------------|
|-------------------------------------------------3----------------|

 |        |        |        |
|------------------------------------------------------------------|
|------------------------------------------------------------------|
|-0---------------0------------------------------------------------|
|---------------------------------3---------------3----------------|

 |        |        |        |
|------------------------------------------------------------------|
|------------------------------------------------------------------|
|------------------------------------------------------------------|
|-1----------------------------------------------------------------|

 |        |        |        |
|------------------------------------------------------------------|
|------------------------------------------------------------------|
|------------------------------------------------------------------|
|-1----------------------------------------------------------------|

 |        |        |        |
|------------------------------------------------------------------|
|-0----------------------------------------------------------------|
|------------------------------------------------------------------|
|------------------------------------------------------------------|

 |        |        |        |
|------------------------------------------------------------------|
|------------------------------------------------------------------|
|------------------------------------------------------------------|
|-3----------------------------------------------------------------|

 |        |        |        |
|------------------------------------------------------------------|
|------------------------------------------------------------------|
|------------------------------------------------------------------|
|------------------------------------------------------------------|

 |        |        |        |
||-----------------------------------------------------------------|
|*-----------------------------------------------------------------|
|*-----------------------------------------------------------------|
||-----------------------------------------------------------------|

>3|        |        |        |
|-----------------------------------------------------------------||
|-----------------------------------------------------------------*|
|-----------------------------------------------------------------*|
|-----------------------------------------------------------------||

 |        |        |        |
|------------------------------------------------------------------|
|------------------------------------------------------------------|
|------------------------------------------------------------------|
|------------------------------------------------------------------|

 |        |        |        |
|-------------------------1----------------------------------------|
|-3-------------------------------3--------------------------------|
|-----------------3------------------------------------------------|
|-------------------------------------------------1----------------|

 |        |        |        |
|------------------------------------------------------------------|
|------------------------------------------------------------------|
|-1-------------------------------1--------------------------------|
|-----------------1------------------------------------------------|

 |        |        |        |
|------------------------------------------------------------------|
|------------------------------------------------------------------|
|-1-------------------------------1--------------------------------|
|-----------------1------------------------------------------------|

 |        |        |        |
|------------------------------------------------------------------|
|------------------------------------------------------------------|
|-1-------------------------------1--------------------------------|
|-----------------1-------------------------------1----------------|

 |        |        |        |
|------------------------------------------------------------------|
|------------------------------------------------------------------|
|-1-----------------------1----------------------------------------|
|-----------------1-------------------------------3----------------|

 |        |        |        |
|------------------------------------------------------------------|
|------------------------------------------------------------------|
|-3-----------------------------------------------3----------------|
|------------------------------------------------------------------|

 |        |        |        |
|------------------------------------------------------------------|
|------------------------------------------------------------------|
|-3-----------------------------------------------3----------------|
|------------------------------------------------------------------|

 |        |        |        |
|------------------------------------------------------------------|
|------------------------------------------------------------------|
|-3-------------------------------3--------------------------------|
|------------------------------------------------------------------|

 |        |        |        |
|------------------------------------------------------------------|
|------------------------------------------------------------------|
|-3-------------------------------4--------------------------------|
|------------------------------------------------------------------|

 |        |        |        |
|------------------------------------------------------------------|
|-0-------------------------------0---------------0----------------|
|-----------------0------------------------------------------------|
|------------------------------------------------------------------|

 |        |        |        |
|-0-------------------------------0---------------0----------------|
|-----------------0------------------------------------------------|
|------------------------------------------------------------------|
|------------------------------------------------------------------|

 |        |        |        |
|------------------------------------------------------------------|
|------------------------------------------------------------------|
|-3-------------------------------3---------------3----------------|
|-----------------3------------------------------------------------|

 |        |        |        |
|------------------------------------------------------------------|
|------------------------------------------------------------------|
|------------------------------------------------------------------|
|-8---------------3---------------4--------------------------------|

 |        |        |        |
|-7-------------------------------7--------------------------------|
|------------------------------------------------------------------|
|------------------------------------------------------------------|
|------------------------------------------------------------------|

 |        |        |        |
|---------------------------------2---------------4----------------|
|-5----------------------------------------------------------------|
|------------------------------------------------------------------|
|------------------------------------------------------------------|

 |        |        |        |
|-5-------------------------------4--------------------------------|
|------------------------------------------------------------------|
|------------------------------------------------------------------|
|------------------------------------------------------------------|

 |        |        |        |
|---------------------------------4---------------6----------------|
|-7----------------------------------------------------------------|
|------------------------------------------------------------------|
|------------------------------------------------------------------|

 |        |        |        |
|-7-------------------------------7--------------------------------|
|------------------------------------------------------------------|
|------------------------------------------------------------------|
|------------------------------------------------------------------|

 |        |        |        |
|-7-----------------------------------------------4----------------|
|-----------5---------------------7--------------------------------|
|------------------------------------------------------------------|
|------------------------------------------------------------------|

 |        |        |        |
|------------------------------------------------------------------|
|------------------------------------------------------------------|
|-3----------------------------------------------------------------|
|------------------------------------------------------------------|

 |        |        |        |
|------------------------------------------------------------------|
|------------------------------------------------------------------|
|-3----------------------------------------------------------------|
|------------------------------------------------------------------|

 |        |        |        |
|------------------------------------------------------------------|
|-2----------------------------------------------------------------|
|------------------------------------------------------------------|
|------------------------------------------------------------------|

 |        |        |        |
|------------------------------------------------------------------|
|-2----------------------------------------------------------------|
|------------------------------------------------------------------|
|------------------------------------------------------------------|

 |        |        |        |
|------------------------------------------------------------------|
|------------------------------------------------------------------|
|-0----------------------------------------------------------------|
|------------------------------------------------------------------|

 |        |        |        |
|---------------------------------------------------------0--------|
|---------------------------------2-------3-------4----------------|
|-3----------------------------------------------------------------|
|------------------------------------------------------------------|

 |        |        |        |        |        |
|-1------------------------------------------------------------------------------------------------|
|--------------------------------------------------------------------------------------------------|
|--------------------------------------------------------------------------------------------------|
|--------------------------------------------------------------------------------------------------|

 |        |        |        |
|------------------------------------------------------------------|
|------------------------------------------------------------------|
|-------------------------------------------3-----1---------0------|
|------------------------------------------------------------------|

 |        |        |        |
|------------------------------------------------------------------|
|-----------------------------------------------------------1------|
|-------------------------------------------------------3----------|
|-4-------------------------------4--------------------------------|

 |        |        |        |

|------------------------------------------------------------------|
|------------------------------------------------------------------|
|-4-------------------------------4--------------------------------|
|-----------------------------------------------------------4------|

 |        |        |        |
|------------------------------------------------------------------|
|------------------------------------------------------------------|
|-4-------------------------------4--------------------------------|
|-----------------------------------------------------------4------|

 |        |        |        |
|------------------------------------------------------------------|
|------------------------------------------------------------------|
|-4-------------------------4-----3-------------------------3------|
|------------------------------------------------------------------|

 |        |
  |        |
|------------------------------------------------------------------|
|---------------------------------------------------------0--------|
|-2-------------------------2-----1---------------------3----------|
|------------------------------------------------------------------|

 |        |        |        |
|------------------------------------------------------------------|
|-1-------------------------1--------------------------------------|
|---------------------------------4-----------------------4--------|
|------------------------------------------------------------------|

 |        |        |        |

|------------------------------------------------------------------|
|------------------------------------------------------------------|
|-3-------------------------1-------------1-------3---------4------|
|---------------------------------4--------------------------------|

 |        |        |        |
|------------------------------------------------------------------|
|------------------------------------------------------------------|
|---------------------------4-----3---------------------4-3--------|
|------------------------------------------------------------------|

 |        |        |        |
|------------------------------------------------------------------|
|------------------------------------------------------------------|
|-2-------------------------2-----1--------------------------------|
|------------------------------------------------------------------|

 |        |        |        |
|------------------------------------------------------------------|
|-1-------------------------------1---------1-----3----------------|
|-----------------1------------------------------------------------|
|------------------------------------------------------------------|

 |        |        |        |
|------------------------------------------------------------------|
|-1----------------------------------------------------------------|
|------------------------------------------------------------------|
|-----------4------------------------------------------------------|

 |        |        |        |
|------------------------------------------------------------------|
|---------------------------------3---------------3---------3------|
|-4---------------4------------------------------------------------|
|---------------------------4--------------------------------------|

 |        |        |        |
|------------------------------------------------------------------|
|-4---------4---------------1---------------------1----------------|
|-------------------------------------------1----------------------|
|------------------------------------------------------------------|

 |        |        |        |
|------------------------------------------------------------------|
|------------------------------------------------------------------|
|------------------------------------------------------------------|
|-----------------4-------------------------------4----------------|

 |        |        |        |
|------------------------------------------------------------------|
|------------------------------------------------------------------|
|-------------------------------------------------4----------------|
|-4----------------------------------------------------------------|




............................................................

Almost there ...

Sign in to get your own page with links to favourite songs and more. You are just one click away...

Login with Facebook Login with Google