Log in

One click and you are in

Login with Facebook Login with Google

Why sign up and log in

Guitar Tabs Explorer
Paul McCartney bass tabs for Give ireland back to the irish

Give Ireland Back To The Irish bass tab by Paul McCartney

Paul McCartney bass tabs for Give ireland back to the irish

Bass tabs

m/mc_cartney/Give_Ireland_back_to_the_Irish.btab

TablEdited by Jan Bjorklund, Finland <jani_bjorklund@yahoo.se>
You are welcome to request for tabs!
Fingering and positions as suggested by TablEdit, please use common sense!

TablEdited by Jan Bjorklund

Tuning : E A D G 	Time Signature: 4/4

 |    |    |    |     |    |    |    |
|----------------------------------|----------------------------------|
|-0-----------0--------------------|-0-----------0-----------0--------|
|-------------------------2---0----|-----------------------------2----|
|----------------------------------|----------------------------------|

 |    |    |    |     |    |    |    |
|----------------------------------|-0--------------------------------|
|-0-----------0-------2---4--------|----------------------------------|
|----------------------------------|---------------------0---2--------|
|----------------------------------|-------------3--------------------|

 |    |    |    |     |    |    |    |
|----------------------------------|----------------------------------|
|-0-----------0--------------------|----------------------------------|
|---------------------4---2--------|-0-----------0-------2---4--------|
|----------------------------------|----------------------------------|

 |    |    |    |     |    |    |    |
|----------------------------------|-0--------------------------------|
|-0-----------0-------2---4---0----|----------------------------------|
|----------------------------------|---------------------0---2---4----|
|----------------------------------|-------------3--------------------|

 |    |    |    |     |    |    |    |
|----------------------------------|----------------------------------|
|-0--------------------------------|-0-------0-------0----------------|
|-------------0-------2---4---0----|-------------------------2---0----|
|----------------------------------|----------------------------------|

 |    |    |    |     |    |    |    |
|----------------------------------|----------------------------------|
|-0-----------0--------------------|-2-----------2---------------4----|
|----------------------------------|----------------------------------|
|----------------------------------|----------------------------------|

 |    |    |    |     |    |    |    |
|-0--------------------------------|----------------------------------|
|----------------------------------|-0-----------0---0----------------|
|----------------------------------|----------------------------------|
|-------------3-----------3--------|----------------------------------|

 |    |    |    |     |    |    |    |
|----------------------------------|----------------------------------|
|-0-----------0--------------------|-2-----------2---------------4----|
|----------------------------------|----------------------------------|
|----------------------------------|----------------------------------|

 |    |    |    |     |    |    |    |
|-0--------------------------------|----------------------------------|
|----------------------------------|-0-----------0-----------0--------|
|----------------------------------|----------------------------------|
|-------------3-----------3--------|----------------------------------|

 |    |    |    |     |    |    |    |
||---------------------------------|---------------------------------||
|*---------------------------------|-2-----------2-----------2-------||
|*2-----------2-----------2--------|---------------------------------||
||---------------------------------|---------------------------------||

>1|    |    |    |     |    |    |    |
|-0--------------------------------|---------------------------------||
|----------------------------------|-0-----------0---0-------0-------*|
|----------------------------------|---------------------------------*|
|-------------3-------3------------|---------------------------------||

>2|    |    |    |     |    |    |    |
|-0-------0-------0-------0--------|-0-------0-------0-------0--------|
|-----0-------0-------0-------0----|-----0-------0-------0-------0----|
|----------------------------------|----------------------------------|
|----------------------------------|----------------------------------|

 |    |    |    |     |    |    |    |
|-0-------0-------0-------0--------|-2---2---2-----------2---2--------|
|-----0-------0-------0-------0----|----------------------------------|
|----------------------------------|----------------------------------|
|----------------------------------|----------------------------------|

 |    |    |    |     |    |    |    |
|-2---2---2-----------2---2---2----||---------------------------------|
|----------------------------------|*0-----------0-------2---4---0----|
|----------------------------------|*---------------------------------|
|----------------------------------||---------------------------------|

 |    |    |    |    >1|    |    |    |
|-0-------------------------------||----------------------------------|
|---------------------------------||-0-----------0--------------------|
|---------------------0---2---4---||---------------------4---2---0----|
|-------------3-------------------||----------------------------------|

 |    |    |    |    >2|    |    |    |
|---------------------------------||----------------------------------|
|---------------------------------*|-0--------------------------------|
|-------------0-------2---4---0---*|-------------0-------2---4--------|
|---------------------------------||----------------------------------|

 |    |    |    |     |    |    |    |
|----------------------------------|----------------------------------|
|-0-----------0--------------------|-0-----------0--------------------|
|---------0---------------0---4----|----------------------------------|
|----------------------------------|----------------------------------|

 |    |    |    |     |    |    |    |
|----------------------------------|-0-----------0--------------------|
|-2-----------2--------------------|----------------------------------|
|----------------------------------|----------------------------------|
|----------------------------------|-------------------------3--------|

 |    |    |    |     |    |    |    |
|----------------------------------|----------------------------------|
|-0-----------0---0----------------|-0-----------0--------------------|
|----------------------------------|----------------------------------|
|----------------------------------|----------------------------------|

 |    |    |    |     |    |    |    |
|----------------------------------|-------------0--------------------|
|-2-----------2--------------------|-------------------------0--------|
|----------------------------------|----------------------------------|
|----------------------------------|-3--------------------------------|

 |    |    |    |     |    |    |    |
|----------------------------------|----------------------------------|
|-0-----------0---0-------0--------|----------------------------------|
|----------------------------------|-2-----------2--------------------|
|----------------------------------|----------------------------------|

 |    |    |    |     |    |    |    |
|----------------------------------|-0-----------0-----------0--------|
|-2-----------2--------------------|----------------------------------|
|----------------------------------|----------------------------------|
|----------------------------------|----------------------------------|

 |    |    |    |     |    |    |    |
|----------------------------------|----------------------------------|
|-0-----------0-------0---0--------|----------------------------------|
|----------------------------------|-2-----------2-----------2--------|
|----------------------------------|----------------------------------|

 |    |    |    |     |    |    |    |
|----------------------------------|-0-------0-------0-------0--------|
|-2-----------2-----------2--------|-----0-------0-------0-------0----|
|----------------------------------|----------------------------------|
|----------------------------------|----------------------------------|

 |    |    |    |     |    |    |    |
|-0-------0-------0-------0--------|-0-------0-------0-------0--------|
|-----0-------0-------0-------0----|-----0-------0-------0-------0----|
|----------------------------------|----------------------------------|
|----------------------------------|----------------------------------|

 |    |    |    |     |    |    |    |
|-2---2-------2-------2-------2----|-2---2-------2-------2-------2----|
|---------2------------------------|---------2------------------------|
|----------------------------------|----------------------------------|
|----------------------------------|----------------------------------|

>3|    |    |    |     |    |    |    |
|----------------------------------|----------------------------------|
|-0-----------0--------------------|----------------------------------|
|---------------------4---2--------|-0-----------0-------2---4---0----|
|----------------------------------|----------------------------------|

>4|    |    |    |     |    |    |    |
|----------------------------------|----------------------------------|
|-0--------------------------------|-0-------0-------0-------0--------|
|-------------0-------2---4---0----|-------------0-------0-------0----|
|----------------------------------|----------------------------------|

 |    |    |    |     |    |    |    |
|----------------------------------|----------------------------------|
|-0--------------------------------|-0-------0-----------0---0--------|
|-------------0-------2---4---0----|----------------------------------|
|----------------------------------|----------------------------------|

 |    |    |    |     |    |    |    |
||---------------------------------|-0-------0-------0---0-2-4-6-7---||
|*------------------------0-2-4----|---------------------------------*|
|*2-------2-------2---2-4----------|---------------------------------*|
||---------------------------------|---------------------------------||

 |    |    |    |     |    |    |    |
|----------------------------------|----------------------------------|
|-0--------------------------------|----------------------------------|
|----------------------------------|----------------------------------|
|----------------------------------|----------------------------------|




............................................................

Almost there ...

Sign in to get your own page with links to favourite songs and more. You are just one click away...

Login with Facebook Login with Google