Guitar Tabs Explorer
Paul McCartney bass tabs for Flaming pie

Flaming Pie bass tab by Paul McCartney

Paul McCartney bass tabs for Flaming pie

Bass tabs

Intro :
G|---------------------------------|---------------------------------|
D|7---7---7---7---7---7---7---7----|7---7---7---7---7----------------|
A|---------------------------------|---------------------------------|
E|---------------------------------|---------------------------------|
Verse 1 :
G|---------------------------------|---------------------------------|
D|7---7---7---7---7---7---7---7----|7---7---7---7---7---7---5---6----|
A|---------------------------------|---------------------------------|
E|---------------------------------|---------------------------------|

G|---------------------------------|---------------------------------|
D|7---7---7---7---7---7---7---7----|7---7---7---7---7---7---7---7----|
A|---------------------------------|---------------------------------|
E|---------------------------------|---------------------------------|

G|---------------------------------|---------------------------------|
D|5---5---5---5---5---5---5---5----|---------------------------------|
A|---------------------------------|5---5---5---5---5---3------------|
E|---------------------------------|---------------------------------|

G|---------------------------------|---------------------------------|
D|7---7---7---7---7---7---7---7----|7---7---7---7---7-------5---6----|
A|---------------------------------|--------------------7------------|
E|---------------------------------|---------------------------------|

G|---------------------------------|---------------------------------|
D|7---7---7---7---7---7---7---7----|7---7---7---7---7---7---5---6----|
A|---------------------------------|---------------------------------|
E|---------------------------------|---------------------------------|

G|---------------------------------|---------------------------------|
D|7---7---7---7---7---7---7---7----|7---7---7---7---7---7---7---7----|
A|---------------------------------|---------------------------------|
E|---------------------------------|---------------------------------|

G|---------------------------------|---------------------------------|
D|5---5---5---5---5---5---5---5----|---------------------------------|
A|---------------------------------|5---5---5---5---5---3------------|
E|---------------------------------|---------------------------------|

G|---------------------------------|---------------------------------|
D|7---7---7---7---7---7---7---7----|7---7---7---7---7---7---7---7----|
A|---------------------------------|---------------------------------|
E|---------------------------------|---------------------------------|
Chorus :
G|---------------------------------|---------------------------------|
D|---------------------------------|9---9---7---7---6---6---4---4----|
A|---------------------------------|---------------------------------|
E|7---7---7---7---7---7---7---7----|---------------------------------|

G|---------------------------------|---------------------------------|
D|---------------------------------|---------------------------------|
A|---------------------------------|7---7---5---5---4---4------------|
E|0---0---0---0---0---0---0---0----|------------------------7---7----|

G|---------------------------------|---------------------------------|
D|---------------------------------|7---7---5---5---4---4------------|
A|---------------------------------|------------------------7---7----|
E|5---5---5---5---5---5---5---5----|---------------------------------|

G|---------------------------------|---------------------------------|
D|---------------------------------|---------------------------------|
A|5---5---5---5---5---5---5---5----|7---7---7---7---7---7---7---7----|
E|---------------------------------|---------------------------------|

G|---------------------------------|---------------------------------|
D|---------------------------------|---------------------------------| You can also slide
A|5---5---3---3---2---2---0---0----|---------------------------------| to the 7th of E
E|---------------------------------|0---0---0---0---0----------------|

Interlude :
G|---------------------------------|---------------------------------|
D|7-------7-------7-------7--------|7-------7-------7-------7--------|
A|---------------------------------|---------------------------------|
E|---------------------------------|---------------------------------|

G|---------------------------------|---------------------------------|
D|7-------7-------7-------7--------|7-------7-------7-------7--------|
A|---------------------------------|---------------------------------|
E|---------------------------------|----------------------------0----|


Verse 2 :
G|---------------------------------|---------------------------------|
D|---------------------------------|---------------------------------|
A|---------------------------------|---------------------------------|
E|5---5---5---5---5---5---5---5----|5---5---5---5---5---5---3---4----|

G|---------------------------------|---------------------------------|
D|---------------------------------|---------------------------------|
A|---------------------------------|---------------------------------|
E|5---5---5---5---5---5---5---5----|5---5---5---5---5---5---5---5----|

G|---------------------------------|---------------------------------|
D|---------------------------------|---------------------------------|
A|---------------------------------|5---5---5---5---3-------3--------|
E|3---3---3---3---3---3---3---3----|---------------------------------|

G|---------------------------------|---------------------------------|
D|---------------------------------|---------------------------------|
A|---------------------------------|---------------------------------|
E|5-------5-------5-------5--------|5-------5-------5-------5--------|

G|---------------------------------|---------------------------------|
D|---------------------------------|---------------------------------|
A|---------------------------------|5-------5-------3----------------|
E|3-------3-------3-------3--------|---------------------------------|

G|---------------------------------|---------------------------------|
D|---------------------------------|---------------------------------|
A|---------------------------------|---------------------------------|
E|5---5---5---5---5---5---5---5----|5---5---5---5---5---5---5---5----|


Chorus :
G|---------------------------------|---------------------------------|
D|---------------------------------|---------------------------------|
A|---------------------------------|---------------------------------|
E|7---7---7---7---7---7---7---7----|7---7---5---5---4---4---2---2----|

G|---------------------------------|---------------------------------|
D|---------------------------------|---------------------------------|
A|---------------------------------|7---7---5---5---4---4------------|
E|0---0---0---0---0---0---0---0----|------------------------7---7----|

G|---------------------------------|---------------------------------|
D|---------------------------------|7---7---5---5---4---4------------|
A|---------------------------------|------------------------7---7----|
E|5---5---5---5---5---5---5---5----|---------------------------------|

G|---------------------------------|---------------------------------|
D|---------------------------------|---------------------------------|
A|5---5---5---5---5---5---5---5----|7---7---7---7---7---7---7---7----|
E|---------------------------------|---------------------------------|

G|---------------------------------|---------------------------------|
D|---------------------------------|---------------------------------| You can also slide
A|5---5---3---3---2---2---0---0----|---------------------------------| to the 7th of E
E|---------------------------------|0---0---0---0---0----------------|


Outro :
G|---------------------------------|---------------------------------|
D|7-------7-------7-------7--------|7-------7-------7-------7--------|
A|---------------------------------|---------------------------------|
E|---------------------------------|---------------------------------|

G|---------------------------------|---------------------------------|
D|7-------7-------7-------7--------|7-------7-------7-------7--------|
A|---------------------------------|---------------------------------|
E|---------------------------------|----------------------------0----|

G|---------------------------------|---------------------------------|
D|7-------7-------7-------7--------|7-------7-------7-------7--------|
A|---------------------------------|---------------------------------|
E|---------------------------------|----------------------------0----|

G|---------------------------------|---------------------------------|
D|7---------------7----------------|7---------------7----------------|
A|--------7---------------7--------|--------7---------------7--------|
E|---------------------------------|---------------------------------|

G|---------------------------------|---------------------------------|
D|7---------------7-----------5----|7---------------7-----------5----|
A|--------7---------------7--------|--------7---------------7--------|
E|---------------------------------|---------------------------------|

G|---------------------------------|---------------------------------|
D|--------------------4---5---6----|7---5---4------------------------|
A|----4---5---6---7----------------|------------7---5---4------------|
E|5--------------------------------|------------------------7---6----|
ⓘ Bass guitar tab for 'Flaming Pie' by Paul McCartney, a male rock artist from Liverpool, England. Paul McCartney was born in 1942. Paul McCartney is known for his philosophical rock/pop music.