Log in

One click and you are in

Login with Facebook Login with Google

Why sign up and log in

Guitar Tabs Explorer
Paul McCartney bass tabs for Fine line

Bass tabs

Intro :
G|---------------------------------|---------------------------------|
D|7--------------------------------|------------4---5----------------|
A|---------------------------------|--------------------2---2---\----|
E|---------------------------------|---------------------------------|

G|---------------------------------|---------------------------------|
D|---------------------------------|---------------------------------|
A|0--------------------------------|---------------------------------|
E|---------------------------------|---------------------------------|
Chorus :
G|---------------------------------|---------------------------------|
D|---------------------------------|---------------------------------|
A|---------------------------------|----------------------------4----|
E|5---5---5---5---5---5---5---5----|5---5---5---5---5---5---5--------|

G|---------------------------------|---------------------------------|
D|---------------------------------|---------------------------------|
A|5---5---5---5---5---5---5---5----|5---5---5---5---5---7-\-3---5----|
E|---------------------------------|---------------------------------|

G|---------------------------------|---------------------------------|
D|---------------------------------|4---4---4---4---4---4---4--------|
A|------------------------3-/-5----|----------------------------7----|
E|5---5---5---5---0---0------------|---------------------------------|

G|---------------------------------|---------------------------------|
D|---------------------------------|---------------------------------|
A|5-------5---5---5---5---5---5----|5---5---5---------------4---4----|
E|---------------------------------|------------0---5---5------------|


Verse 1 :
G|---------------------------------|---------------------------------|
D|---------------------------------|---------------------------------|
A|5---5---5---5---5---5---5---5----|5---5---5---5---5---5---5---5----|
E|---------------------------------|---------------------------------|

G|---------------------------------|---------------------------------|
D|--------4-------7-------9--------|7--------------------------------|
A|5--------------------------------|--------4---4---7---7---4---4----|
E|---------------------------------|---------------------------------|

G|---------------------------------|---------------------------------|
D|---------------------------------|---------------------------------|
A|5---5---5---5---5---5---5---5----|5---5---5---5---5---5---5---\----|
E|---------------------------------|---------------------------------|

G|---------------------------------|------------------------4---2----|
D|------------------------0---1----|2-------2-----/-4----------------|
A|2---2---2---2---2---2------------|---------------------------------|
E|---------------------------------|---------------------------------|

Interlude :
G|---------------------------------|---------------------------------|
D|---------------------------------|---------------------------------|
A|---------------------------------|---------------------------------|
E|1---1---1---1---1---1---1---1----|1---1---1---1---1---1---1---1----|

G|---------------------------------|---------------------------------|
D|---------------------------------|---------------------------------|
A|---------------------------------|---------------------------------|
E|2---2---2---2---2---2---2---2----|2---2---2---2---2---2---2---2----|

G|---------------------------------|---------------------------------|
D|---------------------------------|---------------------------------|
A|---------------------------------|---------------------------------|
E|3---3---3---3---3---3---3---3----|3---3---3---3---3---3---3---3----|

Bridge :
G|---------------------------------|---------------------------------|
D|7--------------------------------|------------------------7---\----|
A|---------------------------------|---------------------------------|
E|---------------------------------|---------------------------------|

G|---------------------------------|---------------------------------|
D|4--------------------------------|---------------------------------|
A|---------------------------------|----------------4-------7--------|
E|---------------------------------|---------------------------------|

G|---------------------------------|---------------------------------|
D|---------------------------------|---------------------------------|
A|5--------------------------------|------------------------5---\----|
E|---------------------------------|---------------------------------|

G|---------------------------------|---------------------------------|
D|---------------------------------|--------7---7---7---7---7---7----|
A|0--------------------------------|----5----------------------------|
E|---------------------------------|---------------------------------|


Chorus :
G|---------------------------------|---------------------------------|
D|7---7---7---7---7---7---7---7----|7---7---7---7---7---7---7---7----|
A|---------------------------------|---------------------------------|
E|---------------------------------|---------------------------------|

G|---------------------------------|---------------------------------|
D|---------------------------------|---------------------------------|
A|5---5---5---5---5---5---5---5----|5---5---5---5---5----------------|
E|---------------------------------|--------------------2---3---4----|

G|---------------------------------|---------------------------------|
D|7---7---7---7---7---7---7---\----|4-------4-------4-------4--------|
A|---------------------------------|---------------------------------|
E|---------------------------------|---------------------------------|

G|---------------------------------|---------------------------------|
D|---------------------------------|----------------7---7------------|
A|5-------5---5---5---5---5---5----|5---5---5---7-----------4---4----|
E|---------------------------------|---------------------------------|


Verse 2 :
G|---------------------------------|---------------------------------|
D|---------------------------------|---------------------------------|
A|5---5---5---5---5---5---5---5----|5---5---5---5---5---5---5---5----|
E|---------------------------------|---------------------------------|

G|---------------------------------|---------------------------------|
D|--------4-------7-------9--------|7--------------------------------|
A|5--------------------------------|--------4---4---7---7---4---4----|
E|---------------------------------|---------------------------------|

G|---------------------------------|---------------------------------|
D|---------------------------------|---------------------------------|
A|5---5---5---5---5---5---5---5----|5---5---5---5---5---5---5---5----|
E|---------------------------------|---------------------------------|

G|---------------------------------|---------------------------------|
D|------------------------0---1----|2---2---2---2---2---2---2---/----|
A|2---2---2---2---2---2------------|---------------------------------|
E|---------------------------------|---------------------------------|

Interlude :
G|---------------------------------|---------------------------------|
D|7-----------7---7----------------|4-----------4---4---2---4---/----|
A|---------------------------------|---------------------------------|
E|---------------------------------|---------------------------------|

G|---------------------------------|---------------------------------|
D|7-----------7---7-----------3----|4-----------4---4---2---4---/----|
A|---------------------------------|---------------------------------|
E|---------------------------------|---------------------------------|

G|---------------------------------|---------------------------------|
D|7-----------7---7-------7--------|4-----------4---4---4---4--------|
A|---------------------------------|----------------------------7----|
E|---------------------------------|---------------------------------|

G|---------------------------------|---------------------------------|
D|---------------------------------|---------------------------------|
A|5--------------------------------|5---5---5---5---5----------------|
E|---------------------------------|---------------------------------|


Chorus (outro) : (4 times)
G|---------------------------------|---------------------------------|
D|---------------------------------|---------------------------------|
A|---------------------------------|---------------------------------|
E|1---1---1---1---1---1---1---1----|1---1---1---1---1---1---1---1----|

G|---------------------------------|---------------------------------|
D|---------------------------------|---------------------------------|
A|---------------------------------|---------------------------------|
E|2---2---2---2---2---2---2---2----|2---2---2---2---2---2---2---2----|

G|---------------------------------|---------------------------------|
D|---------------------------------|---------------------------------|
A|---------------------------------|---------------------------------|
E|3---3---3---3---3---3---3---3----|3---3---3---3---3---3---3---3----|

Then 2:56
G|---------------------------------|---------------------------------|
D|---------------------------------|---------------------------------|
A|---------------------------------|---------------------------------|
E|1---1---1---1---1---1---1---1----|1---1---1---1---1---1---1---1----|

G|---------------------------------|---------------------------------|
D|7---7---7---7---7---7---7---7----|7---7---7---7---7----------------|
A|---------------------------------|---------------------------------|
E|---------------------------------|---------------------------------|

Almost there ...

Sign in to get your own page with links to favourite songs and more. You are just one click away...

Login with Facebook Login with Google