Log in

One click and you are in

Login with Facebook Login with Google

Why sign up and log in

Guitar Tabs Explorer
Paul McCartney bass tabs for Find my way

Bass tabs

Tuning: Standard (E A D G)


Intro: (0:06-0:07)
G|-----------------|
D|-3-1-------------|
A|-----3-1-0-------|
E|-----------3-1-0-|
B|-----------------|

Verse 1: (0:08-0:30)
G|---------------------|--------------------|-----------------------|------------------------|
D|---------------------|--------------------|----3--------3-1-------|----3-------3-1---------|
A|---------------------|--------------------|------3----------3--3--|------3---------3--1----|
E|-1-------------------|-1------------------|-1---------1-----------|-1--------1----------4--|
B|------1----3----1----|------1----3----1---|-----------------------|------------------------|

G|---------------------|
D|---------------------|
A|---------------------| x2
E|-1-------------------|
B|------1----3----1----|


Bridge 1: (0:31-0:50)
G|-------------------------|-------------------------|--------------------------|------------------------|
D|-------------------------|-------------------------|----3--------3-1----------|----3--------3-1--------|
A|-------------------------|-------------------------|------3----------3--1-3---|------3----------3--1---|
E|-------------------------|-------------------------|-1---------1--------------|-1---------1----------4-|
B|-4-----3-----4-----3-----|-4-----3-----2-----1-----|--------------------------|------------------------|

Verse 2: (0:51-1:09)
G|---------------------|---------------------|---------------------|------------------|
D|---------------------|---------------------|---------------------|------------------|
A|---------------------|---------------------|---------------------|------------------|
E|-1-------------------|-1-------------------|-1---------1---------|-1---------1------|
B|------1----3----1----|------1----3----1----|------1---------1----|------1---------1-|


Interlude: (1:10-1:27)
G|--------------------------|--------------------------------|---------------------|------------------|
D|----3--------3-1----------|----3--------3-1----------------|---------------------|------------------|
A|------3----------3--1-3---|------3----------3--1-----------|---------------------|------------------|
E|-1---------1--------------|-1---------1----------4---------|-1---------1---------|-1---------1------|
B|--------------------------|-------------------------6-\----|------1---------1----|------1---------1-|


Bridge 2: (1:28-1:50)
G|-------------------------|-------------------------|--------------------------|------------------------|
D|-------------------------|-------------------------|----3--------3-1----------|----3--------3-1--------|
A|-------------------------|-------------------------|------3----------3--1-3---|------3----------3--1-3-|
E|-------------------------|-------------------------|-1---------1--------------|-1---------1------------|
B|-4-----3-----4-----3-----|-4-----3-----2-----1-----|--------------------------|------------------------|


Verse 3: (1:51-2:06)
G|---------------------|---------------------|---------------------|---------------------------|
D|---------------------|---------------------|---------------------|---------------------------|
A|---------------------|---------------------|---------------------|---------------------------|
E|-1-------------------|-1-------------------|-1---------1---------|-1---------1--------5--3---|
B|------1----3----1----|------1----3----1----|------1---------1----|------1---------1--------6-|


Bridge 3: (2:07-2:37)
G|-------------------------|-------------------------|---------------------------|--------------------------|
D|-------------------------|-------------------------|--------------3-1----------|---------------3-1--------|
A|-------------------------|-------------------------|-----6------------3--1-3---|-----6-------------3--1-3-|
E|-------------------------|-------------------------|-1-/---8----1--------------|-1-/---8--\--1------------|
B|-4-----3-----4-----3-----|-4-----3-----2-----1-----|---------------------------|--------------------------|

G|-------------------------|-------------------|
D|-------------------------|-------------------|
A|-------------------------|-------------------|
E|-1-----------1-----------|-1-----------1-----|
B|------1----1------1----1-|------1---1------1-|


Verse 4: (2:38-2:48)
G|---------------------|---------------------|----------------|
D|---------------------|---------------------|----------------|
A|---------------------|---------------------|------3----3----|
E|---------------------|---------------------|-1------------1-|
B|-1/8--1----3----1----|-1/8--1----3----1----|----------------|


Outro: (2:51-3:49)
G|--------------------------|-----------------------|-----------------------|
D|--------------------------|-----------------------|-----------------------|
A|--------------------------|-----------------------|-----------------------|
E|-1-----------1------------|-1-----------1---------|---1------------1------|
B|------1----1-----1-6-4-3\-|------1----1------1----|-1------1---1--------1-|

(3:09)
G|-----------------------|----------------------|
D|-----------------------|----------------------|
A|-----------------------|----------------------| x6
E|-1-----------1---------|---1-----------1------|
B|------1---1-------1----|-1------1---1-------1-|

G|-----------------------|----------------------|
D|-----------------------|----------------------|
A|-----------------------|----------------------|
E|-1-----------1---------|---1------------------|
B|------1---1-------1----|-1------1---1--6-4-3\-|


************************************

| /  Slide up
| \  Slide down

************************************

Almost there ...

Sign in to get your own page with links to favourite songs and more. You are just one click away...

Login with Facebook Login with Google