Guitar Tabs Explorer
Paul McCartney bass tabs for Famous groupies

Famous Groupies bass tab by Paul McCartney

Paul McCartney bass tabs for Famous groupies

Bass tabs

Bass starts on 00:08


Chorus :
G|---------------------------------|---------------------------------|
D|---------------------------------|7--------------------------------|
A|3--------------------------------|---------------------------------|
E|----------------0----------------|----------------3----------------|

G|---------------------------------|---------------------------------|
D|---------------------------------|7--------------------------------|
A|3---------------7----------------|---------------------------------|
E|---------------------------------|----------------3-------3--------|
Verse 1 :
G|---------------------------------|---------------------------------|
D|---------------------------------|---------------------------------|
A|---------------------------------|---------------------------------|
E|3--------------------------------|---------------------------------|

G|---------------------------------|---------------------------------|
D|---------------------------------|---------------------------------|
A|---------------------------------|---------------------------------|
E|---------------------------------|------------------------0--------|

G|---------------------------------|---------------------------------|
D|---------------------------------|---------------------------------|
A|---------------------------------|---------------------------------|
E|5-------5-------5-------5--------|5-------5-------5-------5--------|

G|---------------------------------|---------------------------------|
D|---------------------------------|7-------7-------7-------7--------|
A|----------------7-------7--------|---------------------------------|
E|7-------7------------------------|---------------------------------|

G|---------------------------------|---------------------------------|
D|---------------------------------|---------------------------------|
A|5-------5-------5-------5--------|---------------------------------|
E|---------------------------------|5-------5-------5-------5--------|

G|---------------------------------|---------------------|
D|---------------------------------|---------------------| *6 instead of 8
A|---------------------------------|---------------------|
E|3-------3-------3----------------|---------------------|

G|---------------------------------|---------------------------------|
D|---------------------------------|---------------------------------|
A|---------------------------------|---------------------------------|
E|---------------------------------|---------------------------------|

G|---------------------------------|---------------------------------|
D|---------------------------------|---------------------------------|
A|---------------------------------|---------------------------------|
E|------------------------0--------|5--------------------------------|

G|---------------------------------|---------------------------------|
D|7-------7-------7-------7--------|---------------------------------|
A|---------------------------------|----------------7-------7--------|
E|---------------------------------|7-------7------------------------|

G|---------------------------------|---------------------------------|
D|7-------7-------7-------7--------|---------------------------------|
A|---------------------------------|5-------5-------5-------5--------|
E|---------------------------------|---------------------------------|

G|---------------------------------|---------------------------------|
D|---------------------------------|---------------------------------|
A|---------------------------------|---------------------------------|
E|5-------5------------------------|---------------------------------|
Chorus :
G|---------------------------------|---------------------------------|
D|---------------------------------|---------------------------------|
A|3-------3------------------------|---------------------------------|
E|----------------0-------0--------|5-------5-------3-------3--------|

G|---------------------------------|---------------------------------|
D|---------------------------------|7-------7------------------------|
A|3-------3-------7-------7--------|---------------------------------|
E|---------------------------------|----------------3-------3--------|


Verse 2 :
G|---------------------------------|---------------------------------|
D|---------------------------------|---------------------------------|
A|---------------------------------|---------------------------------|
E|3--------------------------------|---------------------------------|

G|---------------------------------|---------------------------------|
D|---------------------------------|---------------------------------|
A|---------------------------------|---------------------------------|
E|---------------------------------|------------------------0--------|

G|---------------------------------|---------------------------------|
D|--------------------7------------|---------------------------------|
A|7-------\-------0-------2---3----|0-------2---3---0-------2---3----|
E|---------------------------------|---------------------------------|

G|--------2---2---2---2---2---2----|---------------------------------|
D|2-----2--------------------------|--------------------9-------9----|
A|---------------------------------|2-------2-------7-------7--------|
E|---------------------------------|---------------------------------|

G|---------------------------------|----7-------7-------7-------7----|
D|----7-------7-------7-------7----|---------------------------------|
A|0-------0-------0-------0--------|5-------5-------5-------5--------|
E|---------------------------------|---------------------------------|

G|---------------------------------|---------------------------------|
D|----7-------7-------7-------7----|----5-------5-------5-------5----|
A|0-------0-------0-------0--------|---------------------------------|
E|---------------------------------|3-------3-------3-------3--------|


Solo :
G|----5-------5--------9------9----|---------------------------------|
D|---------------------------------|----7-------7-------5-------5----|
A|3-------3-------7-------7--------|0-------0---------------------5--|
E|---------------------------------|----------------3-------3--------|

G|----5-------5--------9------9----|---------------------------------|
D|---------------------------------|----7-------7-------5-------5----|
A|3-------3-------7-------7--------|0-------0------------------------|
E|---------------------------------|----------------3-------3--------|


Verse 3 :
G|---------------------------------|--------7---7---7---7------------|
D|---------------------------------|----------------------------6h7--|
A|---------------------------------|---------------------------------|
E|3--------------------------------|---------------------------------|

G|----7-------7-------7-------7----|----7-------7-------7-------7----|
D|---------------------------------|---------------------------------|
A|5-------5-------5-------5--------|5-------5-------5-------5--------|
E|---------------------------------|---------------------------------|

G|----9-------9--------------------|---------------------------------|
D|--------------------7-------7----|----7-------7-------7-------7----|
A|7-------7-------0-------0--------|0-------0-------0-------0--------|
E|---------------------------------|---------------------------------|

G|--------------------9-------9----|---------------------------------|
D|----9-------9--------------------|----7-------7-------7-------7----|
A|----------------7-------7--------|0-------0-------0-------0--------|
E|7-------7------------------------|---------------------------------|

G|----7-------7-------7-------7----|---------------------------------|
D|---------------------------------|----7-------7-------7-------7----|
A|5-------5-------5-------5--------|0-------0-------0-------0--------|
E|---------------------------------|---------------------------------|
2 :46
G|----7---7-9--/--10---------------|--h-12--------------9-------9----|
D|---------------------------------|---------------------------------|
A|5--------------------------------|------------3-5-7-------7--------|
E|---------------------------------|---------------------------------|

G|---------------------------------|---------------------------------|
D|--------------------5---5---\----|---------------------------------|
A|---------------------------------|3-------3---3-5-7-------7--------|
E|5-------5-------3----------------|--------------------0-------0----|


Outro (Repeat) :
G|---------------------------------|---------------------------------|
D|------------7---------------7----|------------7---------------7----|
A|0-------0-------0-------0--------|0-------0-------0-------0--------|
E|---------------------------------|---------------------------------|

And then :
G|---------------------------------|---------------------------------|
D|7-------7------------------------|---------------------------------|
A|----------------0----------------|---------------------------------|
E|--------------------3------------|---------------------------------|
ⓘ Bass guitar tab for 'Famous Groupies' by Paul McCartney, a male rock artist from Liverpool, England. Paul McCartney was born in 1942. Paul McCartney is known for his philosophical rock/pop music.