Log in

One click and you are in

Login with Facebook Login with Google

Why sign up and log in

Guitar Tabs Explorer
Paul McCartney bass tabs for Every night

Bass tabs

m/mc_cartney/Every_night.btab

TablEdited by Jan Bjorklund, Finland <jani_bjorklund@yahoo.se>
You are welcome to request for tabs!
Fingering and positions as suggested by TablEdit, please use common sense!

TablEdited by Jan Bjorklund

Tuning : E A D G 	Time Signature: 4/4

 |    |    |    |    >4|    |    |    |
||---------------------------------|---------------------------------||
|*2---2-------2--------------------|-2---2-------2-------------------*|
|*---------------------------------|---------------------------------*|
||---------------------------------|---------------------------------||

 |    |    |    |     |    |    |    |
|----------------------------------|----------------------------------|
|-2---2-------2---0----------------|-----------------4---4------------|
|---------------------4---2---0----|-0---0----------------------------|
|----------------------------------|----------------------------------|

 |    |    |    |     |    |    |    |
|-------------4---4-------4--------|----------------------------------|
|----------------------------------|-4-------4---------------4---4----|
|-2--------------------------------|-------------4-------4------------|
|----------------------------------|----------------------------------|

 |    |    |    |     |    |    |    |
|-4-----------2-------1------------|----------------------------------|
|-----------------------------4----|-2-------2-----------2---2--------|
|----------------------------------|----------------------------------|
|----------------------------------|----------------------------------|

 |    |    |    |     |    |    |    |
|-------------------------1--------|-2-------------------2-------6----|
|-2-------2-------4----------------|-----2-------4--------------------|
|----------------------------------|----------------------------------|
|----------------------------------|----------------------------------|

 |    |    |    |     |    |    |    |
|----------------------------------|----------------------------------|
|----------------------------------|-2--------------------------------|
|-2---2---2------------------------|----------------------------------|
|----------------------------------|----------------------------------|

 |    |    |    |     |    |    |    |
|----------------------------------||----------------------------1----|
|----------------------------------|*2-----------2-------2---4--------|
|----------------------------------|*---------------------------------|
|-0--------------------------------||---------------------------------|

 |    |    |    |     |    |    |    |
|-2-----------2-------2---1--------|---------------------------------||
|-----------------------------4----|-2-----------2-------2---1-------||
|----------------------------------|-----------------------------4---||
|----------------------------------|---------------------------------||

>1|    |    |    |    >2|    |    |    |
|---------------------------------||----------------------------------|
|-----------------------------1---*|----------------------------------|
|-2-----------2-------2---4-------*|-2-----------2-------2---2--------|
|---------------------------------||----------------------------------|

 |    |    |    |     |    |    |    |
|----------------------------------|-----9-9-9------------------------|
|-2---2-------2--------------------|-2-----------2-------2---2--------|
|----------------------------------|----------------------------------|
|----------------------------------|----------------------------------|

 |    |    |    |     |    |    |    |
|-----9-9-9---------------1--------|-2---6---------------2-------6----|
|-2-----------2---4----------------|-------------4--------------------|
|----------------------------------|----------------------------------|
|----------------------------------|----------------------------------|

 |    |    |    |     |    |    |    |
|-----------------------------1----|-2-----------2-------2---1--------|
|-2-----------2-------2---4--------|-----------------------------4----|
|----------------------------------|----------------------------------|
|----------------------------------|----------------------------------|

 |    |    |    |     |    |    |    |
|----------------------------------|----------------------------------|
|-2-----------2-------2---1--------|----------------------------------|
|-----------------------------4----|-2-----------2-------2---2--------|
|----------------------------------|----------------------------------|





............................................................

Almost there ...

Sign in to get your own page with links to favourite songs and more. You are just one click away...

Login with Facebook Login with Google