Log in

One click and you are in

Login with Facebook Login with Google

Why sign up and log in

Guitar Tabs Explorer
Paul McCartney bass tabs for Ebony and ivory

Bass tabs

m/mc_cartney/Ebony_and_ivory.btab

Basstab by Jan Bjorklund, Finland <jani_bjorklund@yahoo.se>
You are welcome to request for basstabs!
Fingering and positions as suggested by TablEdit, please use common sense!

TablEdited by Jan Bjorklund

Tuning : E A D G 	Time Signature: 4/4

 |    |    |    |     |    |    |    |
|----------------------------------|-4--------------------------------|
|----------------------------------|----------------------------------|
|-2--------------------------------|-------------2--------------------|
|----------------------------------|----------------------------------|

 |    |    |    |     |    |    |    |
|----------------------------------|----------------------------------|
|----------------------------------|----------------------------------|
|----------------------------------|-------------------------2--------|
|-0-----------------------4--------|-2--------------------------------|

 |    |    |    |     |    |    |    |
|----------------------------------|----------------------------------|
|----------------------------------|----------------------------------|
|-----------------------------2----|-------------------------2--------|
|-0-----------------------4--------|-2--------------------------------|

 |    |    |    |     |    |    |    |
|----------------------------------|----------------------------------|
|----------------------------------|----------------------------------|
|----------------------------------|-----------------2----------------|
|-0-----------------------4--------|-2--------------------------------|

 |    |    |    |     |    |    |    |
|----------------------------------|----------------------------------|
|----------------------------------|----------------------------------|
|----------------------------------|-2-----------------------------2--|
|-0---------------0----------------|----------------------------------|

 |    |    |    |     |    |    |    |
|-------------4--------------------|----------------------------------|
|----------------------------------|----------------------------------|
|-2--------------------------------|-----------------------------2----|
|----------------------------------|-0---------------------0-4--------|

 |    |    |    |     |    |    |    |
|----------------------------------|----------------------------------|
|----------------------------------|-------------2--------------------|
|-4-----------4---2-----------2-2--|-0-----0-4---------------------0--|
|----------------------------------|-----------------------------4----|

 |    |    |    |     |    |    |    |
|----------------------------------|----------------------------------|
|----------------------------------|----------------------------------|
|----------------------------------|-2-----------2---2-------2---4----|
|-0---------------0-------4--------|----------------------------------|

 |    |    |    |     |    |    |    |
|---------7---------------7--------|----------------------------------|
|----------------------------------|---------3-------4-------------4--|
|-5---------------5-----------5----|-4--------------------------------|
|----------------------------------|----------------------------------|

 |    |    |    |     |    |    |    |
|----------------------------------|---------4------------------------|
|----------------------------------|----------------------------------|
|-----------------------------4-3--|-2---------------2---2---2---2----|
|-2-----------2---2----------------|----------------------------------|

 |    |    |    |     |    |    |    |
|----------------------------------|-------------------------4--------|
|-2--------------------------------|----------------------------------|
|---------4-----------2------------|-------------4-3-2---2------------|
|-------------------------4-2-0----|-2--------------------------------|

 |    |    |    |     |    |    |    |
|----------------------------------|----------------------------------|
|-2-----2--------------------------|----------------------------------|
|---------4-----------2------------|-------------4-3-2---2---2-----4--|
|-------------------------4-2-0----|-2-----2--------------------------|

 |    |    |    |     |    |    |    |
|----------------------------------|----------------------------------|
|-2-----2--------------------------|----------------------------------|
|---------4-----------2------------|-------------4-3-2---2---2-----4--|
|-------------------------4-2-0----|-2-----2-2------------------------|

 |    |    |    |     |    |    |    |
|----------------------------------|-6---------------6---6---6---6----|
|-2-----2--------------------------|----------------------------------|
|---------4-----4-2-----2----------|-----4---4---4--------------------|
|-------------------------4-2-0----|----------------------------------|

 |    |    |    |     |    |    |    |
|----------------------------------|-------------------------6--------|
|-4-----4-1------------------------|-------6--------------------------|
|-----------------4---4---1--------|-----------------4---4------------|
|---------------------------4-2----|-4---4-------4--------------------|

 |    |    |    |     |    |    |    |
|----------------------------------|----------------------------------|
|-4---4-4-1------------------------|-------------------------------1--|
|-----------------4---4---1--------|-----------------4---4---4---4----|
|---------------------------4-2----|-4---4-4-4---4-4------------------|

 |    |    |    |     |    |    |    |
|----------------------------------|-------------------6-----6--------|
|-4---4---------1------------------|----------------------------------|
|---------------------4---1--------|---------6---5-4-----4-------4----|
|---------------------------4-2----|-4-----4--------------------------|

 |    |    |    |     |    |    |    |
|----------------------------------|-4---------------4-------------4--|
|-4---4---1-----1------------------|----------------------------------|
|-----------------4---4---1--------|-----2---2-----2------------------|
|---------------------------4-2----|----------------------------------|

 |    |    |    |     |    |    |    |
|----------------------------------|----------------------------------|
|-2--------------------------------|----------------------------------|
|-----------------------------2----|-4-----------4---2-----------2-2--|
|-----------------0-------4--------|----------------------------------|

 |    |    |    |     |    |    |    |
|----------------------------------|----------------------------------|
|-------------2--------------------|-----------------2----------------|
|-0-----0-4------------------------|-----------------------4-----0----|
|----------------------------------|-0-----------------------4--------|

 |    |    |    |     |    |    |    |
|----------------------------------|---------7-------------7----------|
|----------------------------------|----------------------------------|
|-2---2---2---2---2-----2-2---2----|-5---------------5---5---------5--|
|----------------------------------|----------------------------------|

 |    |    |    |     |    |    |    |
|----------------------------------|----------------------------------|
|---------3-------4----------------|-------------4-4------------------|
|-4--------------------------------|----------------------------------|
|----------------------------------|-2---------------2-------2--------|

 |    |    |    |     |    |    |    |
|---------------------4-------4----|----------------------------------|
|----------------------------------|-2--------------------------------|
|-----2---2-------2-------2-2------|---------4-----------2------------|
|-5--------------------------------|-------------------------4-2-0----|

 |    |    |    |     |    |    |    |
|----------------------------------|----------------------------------|
|----------------------------------|-0--------------------------------|
|-------------4-3-2-------2--------|---------4-------2---2------------|
|-2-----2-2------------------------|-------------------------4-2-0----|

 |    |    |    |     |    |    |    |
|---------------------4------------|----------------------------------|
|----------------------------------|-2-----2--------------------------|
|-----------------2----------------|---------4-------2---2------------|
|-2-----2-2-----2------------------|-------------------------4-2-0----|

 |    |    |    |     |    |    |    |
|-------------------------4--------|----------------------------------|
|----------------------------------|-2---2-2--------------------------|
|-------------4-3-2---2------------|---------4---4-4-2---2-2---0-1-2--|
|-2-------2-5----------------------|-------------------------4--------|

 |    |    |    |     |    |    |    |
|-------------6--------------------|----------------------------------|
|----------------------------------|-4---4-4-4---4-4-4---4-4-4--------|
|-4-------4------------------------|-----------------------------4-3--|
|----------------------------------|----------------------------------|

 |    |    |    |     |    |    |    |
|---------4---------------4--------|----------------------------------|
|----------------------------------|-2---2-2--------------------------|
|-2---------------2----------------|---------4-------2---2-2----------|
|----------------------------------|-------------------------4-2-0----|

 |    |    |    |     |    |    |    |
|----------------------------------|----------------------------------|
|----------------------------------|-2---2-2--------------------------|
|-------------4-3-2-2-2---2---2-4--|---------4-------2-2-2-2----------|
|-2---2-2-2------------------------|-------------------------4-2-0----|

 |    |    |    |     |    |    |    |
|-------------------4-------4------|----------------------------------|
|----------------------------------|-2---2-2--------------------------|
|-------4-------2------------------|---------4-------2---2------------|
|-2-2-2----------------------------|-------------------------4-2-0----|

 |    |    |    |     |    |    |    |
|-------------------------4-----4--|----------------------------------|
|----------------------------------|-2-----2--------------------------|
|-------4-------4-2---2------------|---------4-------2-----2----------|
|-2---2----------------------------|-------------------------4-2-0----|

 |    |    |    |     |    |    |    |
|-------------------4-----4--------|----------------------------------|
|----------------------------------|-2---2----------------------------|
|-------4-----3-2-------------2----|---------4---4---2---2-2----------|
|-2--------------------------------|-------------------------4-2-0----|

 |    |    |    |     |    |    |    |
|----------------------------------|----------------------------------|
|-----------------------------2-4--|-2-----2--------------------------|
|-------------4-4-2-------2-4------|---------4-------2---2-2----------|
|-2-----2--------------------------|-------------------------4-2-0----|

 |    |    |    |     |    |    |    |
|---------------------4-----4------|----------------------------------|
|----------------------------------|-2-----2--------------------------|
|-------------4-3-2----------------|---------4-----4-2---2------------|
|-2-----2--------------------------|-------------------------4-2-0----|

 |    |    |    |     |    |    |    |
|----------------------------------|----------------------------------|
|-----------------------------2-4--|-2-----2--------------------------|
|-------------4-3-2---2---2-4------|---------4---2-------2------------|
|-2---2-2--------------------------|-------------------------4-2-0----|

 |    |    |    |     |    |    |    |
|----------------------------------|----------------------------------|
|-----------------------------2-4--|-2-----2--------------------------|
|-------------4-3-2---2---2-4------|---------4-------2---2------------|
|-2---2-2--------------------------|-------------------------4-2-0----|

 |    |    |    |     |    |    |    |
|----------------------------------|----------------------------------|
|-----------------------------2-4--|-2---2-2--------------------------|
|-------------4-3-2---2-----4------|---------4---4-4-2---2------------|
|-2-----2--------------------------|-------------------------4-2-0----|

 |    |    |    |     |    |    |    |
|----------------------------------|----------------------------------|
|-----------------------------2-4--|-2-----2--------------------------|
|-------------4-3-2---2---2-4------|---------4-----4-2-2-2-2----------|
|-2-----2--------------------------|-------------------------4-2-0----|




............................................................

Almost there ...

Sign in to get your own page with links to favourite songs and more. You are just one click away...

Login with Facebook Login with Google