Log in

One click and you are in

Login with Facebook Login with Google

Why sign up and log in

Guitar Tabs Explorer
Paul McCartney bass tabs for Eat at home

Bass tabs

[Intro]
G|--------------------2------------|---------------------------------|
D|----------------------------4----|5-------4------------------------|
A|0---------------2/4--------------|---------------------------------|
E|---------------------------------|---------------------------------|
[Chorus]
G|---------------------------------|---------------------------------|
D|7---7---5------------------------|--------4-------7-------4---7----|
A|----------------7-------4---4----|5---5----------------------------|
E|---------------------------------|---------------------------------|

G|---------------------------------|---------------------------------|
D|--------4-------7----------------|7---7---4------------------------|
A|5---5-------------------5---4----|----------------7---0---5---7----|
E|---------------------------------|---------------------------------|

G|---------------------------------|---------------------------------|
D|7---7---5------------------------|--------4-------7-------4---7----|
A|----------------7---7---4--------|5---5----------------------------|
E|---------------------------------|---------------------------------|

G|---------------------------------|---------------------------------|
D|--------4-------7----------------|7---7---4------------------------|
A|5---5-------------------5---4----|----------------7---4---5---6----|
E|---------------------------------|---------------------------------|

G|---------------------------------|
D|--------6-------9-------5---4----|
A|7---7----------------------------|
E|---------------------------------|

[Interlude]
G|--------------------2-------11---|12------11-----------------------|
D|7--------------------------------|---------------------------------|
A|----------------2/4--------------|---------------------------------|
E|---------------------------------|---------------------------------|
[Chorus]
G|---------------------------------|---------------------------------|
D|7---7---5------------------------|--------4-------7-------4---7----|
A|----------------7---7-------7----|5---5----------------------------|
E|------------------------9--------|---------------------------------|

G|---------------------------------|---------------------------------|
D|--------4-------7-------4---5----|7---7---4------------------------|
A|5---5----------------------------|----------------7---4---5---7----|
E|---------------------------------|---------------------------------|

G|---------------------------------|---------------------------------|
D|7---7---4------------------------|--------4-------7-------4---7----|
A|------------5---7-------4---0----|5---5----------------------------|
E|---------------------------------|---------------------------------|

G|---------------------------------|---------------------------------|
D|--------4-------7-------4---5----|7---7---4------------------------|
A|5---5----------------------------|----------------5---4---5---6----|
E|---------------------------------|---------------------------------|

G|---------------------------------|
D|--------6-------9-------6---9----|
A|7---7----------------------------|
E|---------------------------------|

[Interlude]
G|--------------------2-------11---|12------11-----------------------|
D|7--------------------------------|---------------------------------|
A|----------------2/4--------------|---------------------------------|
E|---------------------------------|---------------------------------|


[Bridge]
G|---------------------------------|---------------------------------|
D|---------------------------------|---------------------------------|
A|7---7---5-------4-------7--------|----------------4-------4---7----|
E|--------------------7------------|5---5---5------------------------|

G|---------------------------------|---------------------------------|
D|---------------------------------|7---7----------------------------|
A|5-5------------------------------|--------4-------5---5-------6----|
E|--------2-2-----3-3-----4-4------|---------------------------------|

G|---------------------------------|---------------------------------|
D|---------------------------------|---------------------------------|
A|7---7---5-------4---4---2--------|---------------------------------|
E|---------------------------------|5---5---4-------2-------0--------|

G|---------------------------------|---------------------------------|
D|----------------------------7----|8-----------8-------8------------|
A|--------4-------7----------------|---------------------------------|
E|5--------------------------------|---------------------------------|

G|---------------------------------|---------------------------------|
D|9-----------9-------9------------|---------------------------------|
A|---------------------------------|7-----------7---7-------7--------|
E|---------------------------------|---------------------------------|


[Chorus]
G|---------------------------------|---------------------------------|
D|7---7---5------------------------|--------4-------7-------4---7----|
A|----------------7-------4---4----|5---5----------------------------|
E|---------------------------------|---------------------------------|

G|---------------------------------|---------------------------------|
D|--------4-------7-----------4----|7---7---4------------------------|
A|5---5-------------------5--------|----------------7---4---5---7----|
E|---------------------------------|---------------------------------|

G|---------------------------------|---------------------------------|
D|7---7---4------------------------|--------4-------7-------4---7----|
A|----------------7---7---4---7----|5---5----------------------------|
E|---------------------------------|---------------------------------|

G|---------------------------------|---------------------------------|
D|--------4-------7-----------5----|7---7---4------------------------|
A|5---5-------------------5--------|----------------7---4---5---6----|
E|---------------------------------|---------------------------------|

G|---------------------------------|
D|--------6-------9-------9--------|
A|7---7----------------------------|
E|---------------------------------|

[Interlude]
G|------------11-------------------|------------10-------------------|
D|---------------------------------|---------------------------------|
A|---------------------------------|---------------------------------|
E|2--------------------------------|1--------------------------------|

G|------------9--------------------|---------------------------------|
D|---------------------------------|---------------------------------|
A|---------------------------------|6--------------------------------|
E|0--------------------------------|---------------------------------|


[Solo]
G|---------------------------------|---------------------------------|
D|---------------------------------|---------------------------------|
A|7---7---5-------4-------2---0----|7---7---7-------7---7---7--------|
E|---------------------------------|---------------------------------|

G|---------------------------------|---------------------------------|
D|--------4-------5-------6--------|---------------------------------|
A|5---5----------------------------|----------------4---5---6---0----|
E|---------------------------------|5---5---5------------------------|

G|---------------------------------|---------------------------------|
D|---------------------------------|---------------------------------|
A|7---7---5-------4---4---2--------|---------------------------------|
E|---------------------------------|5---5---4-------4---2---2---0----|

G|---------------------------------|---------------------------------|
D|----------------------------7----|8-----------8-------8------------|
A|--------4-------7----------------|---------------------------------|
E|5--------------------------------|---------------------------------|

G|---------------------------------|---------------------------------|
D|9-----------9-------9------------|---------------------------------|
A|---------------------------------|7-----------7---7-------7--------|
E|---------------------------------|---------------------------------|


[Chorus]
G|---------------------------------|---------------------------------|
D|7---7---5------------------------|--------4-------7-------4---7----|
A|----------------7-------4---4----|5---5----------------------------|
E|---------------------------------|---------------------------------|

G|---------------------------------|---------------------------------|
D|--------4-------7----------------|7---7---4------------------------|
A|5---5-------------------5---7----|----------------7---4---5---7----|
E|---------------------------------|---------------------------------|

G|---------------------------------|---------------------------------|
D|7---7---4------------------------|--------4-------7-------4---7----|
A|----------------7---7---4---7----|5---5----------------------------|
E|---------------------------------|---------------------------------|

G|---------------------------------|---------------------------------|
D|--------4-------7-----------5----|7---7---4------------------------|
A|5---5-------------------5--------|----------------7---4---5---6----|
E|---------------------------------|---------------------------------|

G|---------------------------------|
D|--------6-------9-------6---9----|
A|7---7----------------------------|
E|---------------------------------|

[Interlude]
G|--------------------2-------11---|12------11---\-------------------|
D|7--------------------------------|---------------------------------|
A|----------------2/4--------------|---------------------------------|
E|---------------------------------|---------------------------------|


[Solo]
G|---------------------------------|---------------------------------|
D|7---7---5------------------------|--------4-------7-------4---7----|
A|----------------7-------4---4----|5---5----------------------------|
E|---------------------------------|---------------------------------|

G|---------------------------------|---------------------------------|
D|--------4-------7-----------5----|7---7---4------------------------|
A|5---5-------------------5--------|----------------7---4---5---7----|
E|---------------------------------|---------------------------------|

G|---------------------------------|---------------------------------|
D|7---7---4-------------------7----|--------4-------7-------4---7----|
A|----------------7---7---9--------|5---5----------------------------|
E|---------------------------------|---------------------------------|

G|---------------------------------|---------------------------------|
D|--------4-------7-----------5----|7---7----------------------------|
A|5---5-------------------5--------|--------4---4---5---5---6---6----|
E|---------------------------------|---------------------------------|

G|---------------------------------|
D|--------6---6---7---8---9---\----|
A|7---7----------------------------|
E|---------------------------------|

[Interlude]
G|---------------------14----------|---------------------------------|
D|---------------------------------|---------------------------------|
A|12--------------14/16------------|---------------------------------|
E|---------------------------------|---------------------------------|


[Bridge]
G|---------------------------------|---------------------------------|
D|---------------------------------|---------------------------------|
A|7---7---7-------7---7---7--------|7---7---7-------7---7---7--------|
E|---------------------------------|---------------------------------|

G|---------------------------------|---------------------------------|
D|---------------------------------|7---7----------------------------|
A|5-5------------------------------|--------4-------5---5-------6----|
E|--------2-2-----3-3-----4-4------|---------------------------------|

G|---------------------------------|---------------------------------|
D|---------------------------------|---------------------------------|
A|7---7---5-------4---4---2--------|---------------------------------|
E|---------------------------------|5---5---4-------2-------0--------|

G|---------------------------------|---------------------------------|
D|----------------------------7----|8-----------8-------8------------|
A|--------4-------7----------------|---------------------------------|
E|5--------------------------------|---------------------------------|

G|---------------------------------|---------------------------------|
D|9-----------9-------9------------|---------------------------------|
A|---------------------------------|7-----------7---7-------7---\----|
E|---------------------------------|---------------------------------|


[Chorus]
G|---------------------------------|---------------------------------|
D|7---7---5------------------------|--------4-------7-------4---7----|
A|----------------7-------4---4----|5---5----------------------------|
E|---------------------------------|---------------------------------|

G|---------------------------------|---------------------------------|
D|--------4-------7---4---5---6----|7---7---7-------7---7---7--------|
A|5---5----------------------------|---------------------------------|
E|---------------------------------|---------------------------------|

G|---------------------------------|---------------------------------|
D|7---7---4------------------------|--------4-------7-------4---7----|
A|----------------7---7---0---7----|5---5----------------------------|
E|---------------------------------|---------------------------------|

G|---------------------------------|---------------------------------|
D|--------4-------7-----------5----|7---7---4------------------------|
A|5---5-------------------5--------|----------------7---4---5---6----|
E|---------------------------------|---------------------------------|

G|---------------------------------|
D|--------6-------9-------6---9----|
A|7---7----------------------------|
E|---------------------------------|

[Interlude]
G|---------------------------------|------------10-------------------|
D|4--------------------------------|---------------------------------|
A|---------------------------------|---------------------------------|
E|------------2--------------------|1--------------------------------|

G|---------------------------------|---------------------------------|
D|---------------------------------|---------------------------------|
A|---------------------------------|6--------------------------------|
E|0--------------------------------|---------------------------------|


[Solo] (outro)
G|---------------------------------|---------------------------------|
D|---------------------------------|---------------------------------|
A|7---7---5-------4-------2--------|---------------------------------|
E|---------------------------------|5---5---5-------2---2---0--------|

G|---------------------------------|---------------------------------|
D|--------4------------------------|------------7--------------------|
A|5---5----------------------------|---------------------------------|
E|----------------3---3---4--------|---------------------------------|

************************************

| / Slide up
| \ Slide down
ⓘ Bass guitar tab for 'Eat At Home' by Paul McCartney, a male rock artist from Liverpool, England. Paul McCartney was born in 1942. Paul McCartney is known for his philosophical rock/pop music.

Almost there ...

Sign in to get your own page with links to favourite songs and more. You are just one click away...

Login with Facebook Login with Google