Guitar Tabs Explorer
Paul McCartney bass tabs for Dominoes

Dominoes bass tab by Paul McCartney

Paul McCartney bass tabs for Dominoes

Bass tabs

Tuning: Standard (E A D G)

Key: G

Difficulty: Advanced
Intro:
G|/12----------------------------/-|12----------------------------X\-/|
D|---------------------------------|----------------------------------|
A|---------------------------------|----------------------------------|
E|---------------------------------|----------------------------------|

G|12----------------------X\--X\-/-|12----------------------X-\------|
D|---------------------------------|----------------------------X-\--|
A|---------------------------------|---------------------------------|
E|---------------------------------|---------------------------------|


Verse:
G|7--------------------------------|6-----------------/-12------\----|
D|---------------------------------|---------------------------------|
A|---------------------------------|---------------------------------|
E|---------------------------------|---------------------------------|

G|5-----------------------------/--|7--------------------------------|
D|---------------------------------|---------------------------------|
A|---------------------------------|---------------------------------|
E|---------------------------------|---------------------------------|

G|7-------------------12------\----|6-------------------12------\----|
D|---------------------------------|---------------------------------|
A|---------------------------------|---------------------------------|
E|---------------------------------|---------------------------------|

G|5-----------------/-7------------|---------------------------------|
D|---------------------------------|5-----------------------\--------|
A|---------------------------------|---------------------------------|
E|---------------------------------|---------------------------------|
Pre-Chorus:
G|---------------------------------|---------------------------------|
D|------------------------3--------|---------------------------------|
A|5-----------5---5----------------|---------------------------------|
E|---------------------------------|3-----------3---3-------3---\----|

G|---------------------------------|---------------------------------|
D|---------------------------------|5-----------------------3--------|
A|5-----------5---5----------------|----------------------------5----|
E|---------------------------------|------------3---3----------------|


Verse:
G|--------------------7------------|--------------------6-------\----|
D|---------------------------------|---------------------------------|
A|---------------------------------|---------------------------------|
E|3--------------------------------|3--------------------------------|

G|--------------------5-------\----|----------------4---5---7---\----|
D|---------------------------------|------------3--------------------|
A|---------------------------------|---------------------------------|
E|3--------------------------------|3--------------------------------|

G|--------------------7------------|--------------------6-------\----|
D|---------------------------------|---------------------------------|
A|---------------------------------|---------------------------------|
E|3--------------------------------|3--------------------------------|

G|--------------------5-------\----|---------------------------------|
D|---------------------------------|------------5---5-------5---\----|
A|---------------------------------|---------------------------------|
E|3--------------------------------|3--------------------------------|


Pre-Chorus:
G|---------------------------------|---------------------------------|
D|---------------------------------|---------------------------------|
A|5-----------5---5----------------|--------0-------2-------5---\----|
E|---------------------------------|3--------------------------------|

G|---------------------------------|---------------------------------|
D|---------------------------------|---------------------------------|
A|5-----------5---5-------5---\----|----------------------/-1--------|
E|---------------------------------|3-----------3---3----------------|

G|---------------------------------|---------------------------------|
D|---------------------------------|---------------------------------|
A|5-----------5---5----------------|----------------------------5----|
E|----------------------------1----|3-----------3---3----------------|

G|---------------------------------|-------/7--/7--/7---\------------|
D|---------------------------------|----7----------------------------|
A|5-----------5---5-------5--------|5--------------------------------|
E|---------------------------------|---------------------------------|

G|---------------------------------|
D|---------------------------------|
A|---------------------------------|
E|3-----------3---3----------------|


Chorus:
G|---------------------------------|---------------------------------|
D|---------------------------------|---------------------------------|
A|---------------------------------|---------------------------------|
E|1-----------1---1----------------|3-----------3---3----------------|

G|---------------------------------|---------------------------------|
D|---------------------------------|------------5--------------------|
A|---------------------------------|--------5------------------------|
E|1-----------1---1----------------|3---3-----------3---3------------|

G|---------------------------------|---------------------------------|
D|---------------------------------|---------------------------------|
A|---------------------------------|---------------------------------|
E|1-----------1---1----------------|3-----------3---3-----------0----|

G|---------------------------------|---------------------------------|
D|---------------------------------|---------------------------------|
A|----------------------------1----|------------0--------------------|
E|1-----------1---1----------------|----------------1----------------|

G|---------------------------------|---------------------------------|
D|---------------------------------|---------------------------------|
A|1-----------0--------------------|1-----------0-----------0--------|
E|----------------1----------------|----------------1---3-------3----|

G|---------------------------------|
D|----------------------------/-7--|
A|---------------------------------|
E|---------------------------------|


Verse:
G|7--------------------------------|6--------------------------------|
D|---------------------------------|---------------------------------|
A|--------------------5------------|---------------------------------|
E|---------------------------------|--------------------3------------|

G|5------------------------------/-|4-----------4---5---6---7---\----|
D|---------------------------------|---------------------------------|
A|---------------------------------|---------------------------------|
E|--------------------3------------|--------3------------------------|

G|--------------------7-------\----|--------------------6-------\----|
D|---------------------------------|---------------------------------|
A|---------------------------------|---------------------------------|
E|3--------------------------------|3--------------------------------|

G|--------------------5-------\----|------------7--------------------|
D|---------------------------------|----------------5-----------\----|
A|---------------------------------|---------------------------------|
E|3--------------------------------|3--------------------------------|


Pre-Chorus:
G|---------------------------------|---------------------------------|
D|---------------------------------|---------------------------------|
A|5-----------5---5----------------|---------------------------------|
E|---------------------------------|3-----------3---3-------3---\----|

G|---------------------------------|---------------------------------|
D|---------------------------------|---------------------------------|
A|5-----------5---5----------------|--------0-------2-------3---/----|
E|---------------------------------|3---3----------------------------|

G|---------------------------------|---------------------------------|
D|---------------------------------|---------------------------------|
A|5-----------5---5----------------|---------------------------------|
E|---------------------------------|3-----------3---3-------3---\----|

G|---------------------------------|----------------7---\------------|
D|---------------------------------|--------5---7--------------------|
A|5-----------5---5----------------|---------------------------------|
E|---------------------------------|---------------------------------|

G|---------------------------------|
D|---------------------------------|
A|---------------------------------|
E|3-----------3---3----------------|


Chorus:
G|---------------------------------|---------------------------------|
D|---------------------------------|---------------------------------|
A|---------------------------------|---------------------------------|
E|1-----------1---1----------------|3-----------3---3-----------0----|

G|---------------------------------|---------------------------------|
D|---------------------------------|---------------------------------|
A|---------------------------------|--------1-------3---\------------|
E|1-----------1---1----------------|3--------------------------------|

G|---------------------------------|---------------------------------|
D|---------------------------------|---------------------------------|
A|---------------------------------|---------------------------------|
E|1---------------1----------------|3-----------3---3-----------0----|

G|---------------------------------|---------------------------------|
D|---------------------------------|---------------------------------|
A|----------------------------1----|------------0--------------------|
E|1-----------1---1----------------|----------------1----------------|

G|---------------------------------|---------------------------------|
D|---------------------------------|---------------------------------|
A|1-----------0--------------------|1-----------0-----------0--------|
E|----------------1----------------|----------------1---3-------3----|

G|---------------------------------|
D|---------------------------------|
A|----------------------------0----|
E|---------------------------------|

G|---------------------------------|---------------------------------|
D|---------------------------------|---------------------------------|
A|1-------0-------------------0----|--------0------------------------|
E|------------1-----------3--------|1---3-------3--------------------|

G|---------------|
D|---------------|
A|---------------|
E|---------------|


Verse:
G|--------------------7-------\----|--------------------6------------|
D|---------------------------------|---------------------------------|
A|---------------------------------|---------------------------------|
E|3---3---3---3--------------------|3--------------------------------|

G|--------------------5------------|---------------------------------|
D|---------------------------------|--------5-------5---3------------|
A|---------------------------------|------------------------5--\-----|
E|3--------------------------------|3--------------------------------|

G|--------------------7-------\----|--------------------6-------\----|
D|---------------------------------|---------------------------------|
A|---------------------------------|---------------------------------|
E|3--------------------------------|3--------------------------------|

G|--------------------5-------\----|----------/-12------9-\----------|
D|---------------------------------|---------------------------------|
A|---------------------------------|---------------------------------|
E|3--------------------------------|3--------------------------------|


Pre-Chorus:
G|---------------------------------|---------------------------------|
D|---------------------------------|---------------------------------|
A|5-----------5---5----------------|---------------------------------|
E|---------------------------------|3---------------3----------------|

G|---------------------------------|---------------------------------|
D|----------------------------3----|---------------------------------|
A|5-----------5---5-------5--------|--------5---------------3---/----|
E|---------------------------------|3--------------------------------|

G|---------------------------------|---------------------------------|
D|---------------------------------|---------------------------------|
A|5-----------5---5----------------|---------------------------------|
E|---------------------------------|3-----------3---3----------------|

G|---------------------------------|----------------7---\------------|
D|---------------------------------|----7---7------------------------|
A|5-----------5---5----------------|0-----------7--------------------|
E|---------------------------------|---------------------------------|

G|---------------------------------|
D|---------------------------------|
A|---------------------------------|
E|3-----------3---3-----------0----|


Chorus:
G|---------------------------------|---------------------------------|
D|---------------------------------|---------------------------------|
A|---------------------------------|---------------------------------|
E|1-----------1---1----------------|3-----------3---3-----------0----|

G|---------------------------------|---------------------------------|
D|---------------------------------|---------------------------------|
A|---------------------------------|------/-1----/--3---\------------|
E|1-----------1---1----------------|3---------------------------0----|

G|---------------------------------|---------------------------------|
D|---------------------------------|---------------------------------|
A|---------------------------------|---------------------------------|
E|1---------------1----------------|3-----------3---3-----------0----|

G|---------------------------------|---------------------------------|
D|---------------------------------|---------------------------------|
A|----------------------------1----|------------0--------------------|
E|1-----------1---1----------------|----------------1----------------|

G|---------------------------------|---------------------------------|
D|---------------------------------|---------------------------------|
A|1-----------0--------------------|1-----------0-----------0--------|
E|----------------1----------------|----------------1---3-------3----|

G|---------------------------------|
D|---------------------------------|
A|---------------------------------|
E|---------------------------------|


Outro:
G|---------------------------------|---------------------------------|
D|------------------------5---5----|----------------------------5-\--|
A|---------------------------------|------------------------5--------|
E|3---3---3---3---3---3------------|3-------3------------------------|

G|---------------------------------|---------------------------------|
D|---------------------------------|---------------------------------|
A|----------------3---3------------|------------3---3----------------|
E|3-------3---------------3--------|3-------3-----------3---3--------|

G|----------------5---5------------|---------------------------------|
D|------------------------5---5----|------------------------5---\----|
A|---------------------------------|--------------------5------------|
E|3-------3------------------------|3-------3------------------------|

G|---------------------------------|---------------------------------|
D|---------------------------------|---------------------------------|
A|----------------3---3------------|------------3---3----------------|
E|3-------3---------------3--------|3-------3-----------3---3--------|

G|---------------------------------|---------------------------------|
D|---------------------------------|---------------------------------|
A|----------------3---3------------|------------3---3----------------|
E|3-------3---------------3--------|3-------3---------------3--------|

G|---------------------------------|---------------------------------|
D|---------------------------------|---------------------------------|
A|----------------3----------------|------------3---3---\------------|
E|3-------3---------------3--------|3-------3---------------3--------|

G|---------------------------------|---------------------------------|
D|---------------------------------|---------------------------------|
A|----------------3----------------|------------3---3----------------|
E|3-------3---------------3--------|3-------3---------------3--------|

G|---------------------------------|---------------------------------|
D|---------------------------------|---------------------------------|
A|----------------3----------------|------------3---3----------------|
E|3-------3---------------3--------|3-------3---------------3--------|

G|---------------------------------|---------------------------------|
D|---------------------------------|---------------------------------|
A|------------3---3----------------|------------3---3-----------3----|
E|3-------3---------------3--------|3-------3---------------3--------|

G|----------------5---7---10---/---|
D|----3---5---5h7------------------|
A|5--------------------------------|
E|---------------------------------|

G|12-------------------------------|-------------------------------/-|
D|---------------------------------|---------------------------------|
A|---------------------------------|---------------------------------|
E|---------------------------------|---------------------------------|

G|5-----------4--------------------|---------------------------------|
D|------------------------7--------|---------------------------------|
A|---------------------------------|---------------------------------|
E|---------------------------------|3--------------------------------|



***********************************************************************

/ = Slide up
\ = Slide down
H = Hammer on
X = Short or muted notes

***********************************************************************
ⓘ Bass guitar tab for 'Dominoes' by Paul McCartney, a male rock artist from Liverpool, England. Paul McCartney was born in 1942. Paul McCartney is known for his philosophical rock/pop music.