Log in

One click and you are in

Login with Facebook Login with Google

Why sign up and log in

Guitar Tabs Explorer
Paul McCartney bass tabs for Despite repeated warnings

Despite Repeated Warnings bass tab by Paul McCartney

Paul McCartney bass tabs for Despite repeated warnings

Bass tabs

Tuning: Standard (E A D G)

Key: A

Difficulty: Advanced

Part 1:
G|---------------------------------|---------------------------------|
D|---------------------------------|---------------------------------|
A|---------------------------------|---------------------------------|
E|---------------------------------|------------------------0--------|
Verse: 00:42
G|---------------------------------|---------------------------------|
D|---------------------------------|------------------------7--------|
A|----------------7----------------|5-----------5---5----------------|
E|5--------------------------------|---------------------------------|

G|---------------------------------|------------------------9--------|
D|----------------7----------------|--------------------9------------|
A|5-------5---5-----------5---/----|7-------7------------------------|
E|---------------------------------|---------------------------------|

G|---------------------------------|---------------------------------|
D|7-----------7---7----------------|---------------------------------|
A|---------------------------------|---------------------------------|
E|------------------------5---\----|3-----------3---3-------3--------|

G|---------------------------------|---------------------------------|
D|7-----------7---7-------7--------|---------------------------------|
A|---------------------------------|7-----------7---7-------7---7----|
E|---------------------------------|---------------------------------|

G|---------------------------------|---------------------------------|
D|7-----------7---7-------7--------|7-----------7---7-------7--------|
A|--------------------0------------|--------------------0------------|
E|---------------------------------|---------------------------------|

G|---------------------------------|---------------------------------|
D|7-----------7---7-------7--------|---------------------------------|
A|--------------------0------------|7-----------7---7---5---3---2----|
E|---------------------------------|---------------------------------|

G|---------------------------------|---------------------------------|
D|---------------------------------|---------------------------------|
A|3---------------3-------------/--|5---------------5-------5--------|
E|------------3--------------------|------------5--------------------|
Chorus:
G|---------------------------------|9-------11-----------------------|
D|7----------------------\---/--11-|----------------9-------7---\----|
A|---------------------------------|---------------------------------|
E|---------------------------------|---------------------------------|

G|---------------------------------|---------------------------------|
D|4--------------------------------|---------------------------------|
A|---------------------------------|----------------7---7---7-/-9----|
E|------------2---2-------1--------|0-----------7--------------------|

G|---------------------------------|------------7--------------------|
D|---------------------------------|--------------7------------------|
A|----------------7----------------|5---5-----------5----------------|
E|5-----------5--------------------|---------------------------------|

G|--------7---7--------------------|----------------------------4----|
D|--------------7/9-------7--------|--------------------4---7--------|
A|5--------------------------------|7-----------7---7----------------|
E|---------------------------------|---------------------------------|


Bridge:
G|---------------------------------|----------------------9----------|
D|7-----------------------7--------|------------7-----------7---7----|
A|------------0-------0------------|0--------------------------------|
E|---------------------------------|---------------------------------|

G|----------------------9----------|---------------------------------|
D|------------------------7---7----|-------------------------------/-|
A|0-----------0--------------------|7-------7-------7---7---7---7----|
E|---------------------------------|------------0--------------------|

G|---------------------------------|---------------------------------|
D|7--------------------------------|7-------------------7---7--------|
A|------------0-------0---0--------|------------0--------------------|
E|---------------------------------|---------------------------------|

G|---------------------------------|---------------------------------|
D|------------7-------7---7--------|---------------------------------|
A|0--------------------------------|7---------------7---5---3---2----|
E|---------------------------------|------------0--------------------|

G|---------------------------------|---------------------------------|
D|---------------------------------|---------------------------------|
A|3---------------3-------3-----/--|5---------------5-------5--------|
E|------------3-------3------------|------------5--------------------|

Part 2:
G|---------------------------------|
D|---------------------------------|
A|---------------------------------|
E|3--------------------------------|


Chorus:
G|---------------------------------|---------------------------------|
D|---------------------------------|---------------------------------|
A|---------------------------------|---------------------------------|
E|3---3---3---3---3---3---3---3----|3---3---3---3---3---3---3---3----|

G|---------------------------------|---------------------------------|
D|---------------------------------|---------------------------------|
A|---------------------------------|---------------------------------|
E|3---3---3---3---3---3---3---3----|3---3---3---3---3---3---3---3----|

G|---------------------------------|---------------------------------|
D|---------------------------------|---------------------------------|
A|---------------------------------|---------------------------------|
E|3---3---3---3---3---3---3---3----|3---3---3---3---3---3---3---3----|

G|---------------------------------|---------------------------------|
D|---------------------------------|---------------------------------|
A|---------------------------------|---------------------------------|
E|3---3---3---3---3---3---3---3----|3---3---3---3---3---3---3---3----|


Verse:
G|---------------------------------|---------------------------------|
D|---------------------------------|---------------------------------|
A|3---3---3---3---3---3---3---3----|3---3---3---3---3---3---3---5----|
E|---------------------------------|---------------------------------|

G|---------------------------------|---------------------------------|
D|---------------------------------|---------------------------------|
A|7---7---7---7---7---7---7---7----|7---7---7---7---7p5--------------|
E|---------------------------------|--------------------7---3---0----|

G|---------------------------------|---------------------------------|
D|---------------------------------|---------------------------------|
A|3---3---3---3---3---3---3---3----|3---3---3---3---3---3---3---3----|
E|---------------------------------|---------------------------------|

G|---------------------------------|---------------------------------|
D|---------------------------------|---------------------------------|
A|7---7---7---7---7---7---7---7----|7---7---7---7---7p5--------------|
E|---------------------------------|--------------------7---3---0----|

G|---------------------------------|---------------------------------|
D|---------------------------------|---------------------------------|
A|3---3---3---3---3---3---3---3----|3---3---3---3---3---3---3---3----|
E|---------------------------------|---------------------------------|

G|---------------------------------|---------------------------------|
D|---------------------------------|---------------------------------|
A|7---7---7---7---7---7---7---7----|7---7---7---7---7-------5--------|
E|---------------------------------|---------------------------------|

G|---------------------------------|---------------------------------|
D|---------------------------------|---------------------------------|
A|3---3---3---3---3---3---3---3----|3---3---3---3---3---3---3---3----|
E|---------------------------------|---------------------------------|

G|---------------------------------|---------------------------------|
D|---------------------------------|---------------------------------|
A|7---7---7---7---7---7---7---7----|7---7---7---7---7---7---7---7----|
E|---------------------------------|---------------------------------|

Interlude:
G|---------------------------------|---------------------------------|
D|---------------------------------|---------------------------------|
A|3--------------------------------|3--------------------------------|
E|------------3--------------------|------------3--------------------|


Chorus:
G|---------------------------------|---------------------------------|
D|---------------------------------|---------------------------------|
A|---------------------------------|---------------------------------|
E|3---3---3---3---3---3---3---3----|3---3---3---3---3---3---3---3----|

G|---------------------------------|---------------------------------|
D|---------------------------------|---------------------------------|
A|---------------------------------|---------------------------------|
E|3---3---3---3---3---3---3---3----|3---3---3---3---3---3---3---3----|

G|---------------------------------|---------------------------------|
D|---------------------------------|---------------------------------|
A|---------------------------------|---------------------------------|
E|3---3---3---3---3---3---3---3----|3---3---3---3---3---3---3---3----|

G|---------------------------------|---------------------------------|
D|---------------------------------|---------------------------------|
A|---------------------------------|---------------------------------|
E|3---3---3---3---3---3---3---3----|3---3---3---3---3---3---3---3----|

Interlude:
G|---------------------------------|---------------------------------|
D|---------------------------------|---------------------------------|
A|5-----------3--------------------|--------------------5------------|
E|--------------------3------------|3-----------5--------------------|

G|---------------------------------|---------------------------------|
D|---------------------------------|---------------------------------|
A|5-----------3--------------------|--------------------5------------|
E|--------------------3------------|3-----------5--------------------|

G|---------------------------------|9---------------------------\----|
D|2-------2---2---2---2---2---2/9--|---------------------------------|
A|---------------------------------|---------------------------------|
E|---------------------------------|---------------------------------|

G|---------------------------------|---------------------------------|
D|---------------------------------|---------------------------------|
A|7-------7---7---7---7---7--------|---------------------------------|
E|----------------------------7--\-|0---0---0---0---0---0---0---0----|

G|---------------------------------|----------------|
D|---------------------------------|----------------|
A|----7---7---7---7----------------|----------------|
E|0-------------------0---0---0----|0---0---0---0---|

Part 3:
G|---------------------------------|---------------------------------|
D|---------------------------------|---------------------------------|
A|---------------------------------|2--------------------------------|
E|0-------------------3------------|---------------------------------|

G|---------------------------------|---------------------------------|
D|---------------------------------|---------------------------------|
A|---------------------------------|2--------------------------------|
E|0-------------------3------------|--------------------3---3---3----|

G|---------------------------------|--------------------|
D|---------------------------------|--------------------|
A|0---0---0---0---0---1---1---1----|3---3---3---3---3---|
E|---------------------------------|--------------------|

G|---------------------------------|---------------------------------|
D|---------------------------------|---------------------------------|
A|5---5---5---5---5---5---5---5----|---------------------------------|
E|---------------------------------|3---3---3---3---3---3---3---3----|

G|---------------------------------|---------------------------------|
D|---------------------------------|---------------------------------|
A|------------0---0---0---0---0----|1---1---1---3---3---3---3---3----|
E|3---3---3------------------------|---------------------------------|

G|---------------------------------|
D|---------------------------------|
A|5---5---5---5---5---5---5---5----|
E|---------------------------------|

G|---------------------------------|---------------------------------|
D|---------------------------------|---------------------------------|
A|3--------------------------------|3--------------------------------|
E|------------3--------------------|------------3--------------------|

G|---------------------------------|---------------------------------|
D|---------------------------------|---------------------------------|
A|3--------------------------------|3-------3-------3----------------|
E|------------3--------------------|---------------------------------|

Little piano break

G|---------------------------------|---------------------------------|
D|---------------------------------|---------------------------------|
A|---------------------------------|---------------------------------|
E|---------------------------------|------------------------15-\-----|

04:59
G|---------------------------------|---------------------------------|
D|---------------------------------|---------------------------------|
A|------------0---0---0---0---0----|1---1---1---3---3---3---3---3----|
E|3---3---3------------------------|---------------------------------|

G|---------------------------------|
D|---------------------------------|
A|5---5---5---5---5---5---5---5----|
E|---------------------------------|

G|---------------------------------|---------------------------------|
D|---------------------------------|---------------------------------|
A|3--------------------------------|3--------------------------------|
E|------------3--------------------|------------3--------------------|

G|---------------------------------|---------------------------------|
D|---------------------------------|---------------------------------|
A|3--------------------------------|3---------------------------1----|
E|------------3---------------3----|------------3--------------------|

G|---------------------------------|---------------------------------|
D|---------------------------------|---------------------------------|
A|3--------------------------------|3--------------------------------|
E|------------3--------------------|------------3-----------3--------|

G|---------------------------------|---------------------------------|
D|---------------------------------|---------------------------------|
A|3--------------------------------|3---3---3------------------------|
E|------------3-----------3--------|------------3-----------3--------|


Bridge:
G|---------------------------------|---------------------------------|
D|---------------------------------|---------------------------------|
A|6---6---6---6---6---6---6---6----|6---6---6---6---6---5---6---8----|
E|---------------------------------|---------------------------------|

G|---------------------------------|---------------------------------|
D|---------------------------------|---------------------------------|
A|5---5---5---5---5---5---5---5----|5---5---5---5---5---5---5---5----|
E|---------------------------------|---------------------------------|

G|---------------------------------|---------------------------------|
D|---------------------------------|---------------------------------|
A|6---6---6---6---6---6---6---6----|6---6---6---6---6---5---6---8----|
E|---------------------------------|---------------------------------|

G|---------------------------------|---------------------------------|
D|---------------------------------|---------------------------------|
A|5---5---5---5---5---5---5---5----|5--------------------------\-----|
E|---------------------------------|---------------------------------|


Chorus: tempo change
G|---------------------------------|---------------------------------|
D|---------------------------------|---------------------------------|
A|5--------\--3--------------------|--------------------5------------|
E|--------------------3------------|3-----------5--------------------|

G|---------------------------------|---------------------------------|
D|---------------------------------|---------------------------------|
A|5--------\--3--------------------|--------------------5------------|
E|--------------------3------------|3-----------5--------------------|

G|---------------------------------|---------------------------------|
D|---------------------------------|---------------------------------|
A|3---------------3-------3---/----|5---------------5-------5--------|
E|------------3--------------------|------------5-------5------------|

 Part 1:
G|---------------------------------|---------------------------------|
D|7---------------7----------------|7--------/--10--9-----\-7------\-|
A|----------------------------7----|---------------------------------|
E|---------------------------------|---------------------------------|

G|---------------------------------|---------------------------------|
D|4-----------4---4-------3--------|2--------------------------------|
A|---------------------------------|------------2--------------------|
E|---------------------------------|----------------0----------------|

G|---------------------------------|---------------------------------|
D|---------------------------------|---------------------------------|
A|---------------------------------|5-----------5---5----------------|
E|5-----------5---3----------------|------------------------5--------|

G|---------------------------------|----------------9----------------|
D|---------------------------------|---------------------------------|
A|5-----------5---5-------5---/----|7-------7---7--------------------|
E|--------------------5------------|---------------------------------|

G|---------------------------------|---------------------------------|
D|7---------------7-7-----7-7----7-|------------7---7----------------|
A|------------0--------------------|0--------------------------------|
E|---------------------------------|---------------------------------|

G|---------------------------------|---------------------------------|
D|------------7---7-------7--------|---------------------------------|
A|0--------------------------------|7-----------7---7---7---7---7-\--|
E|---------------------------------|---------------------------------|

G|---------------------------------|--------------------------/-9----|
D|------------7---7----------------|---------------------------------|
A|0-----------------------0--------|0-----------0---0----------------|
E|---------------------------------|---------------------------------|

G|---------------------------------|---------------------------------|
D|7-----------------------7--------|---------------------------------|
A|0-----------0---0----------------|7---------------7----------------|
E|---------------------------------|------------0--------------------|

G|---------------------------------|---------------------------------|
D|---------------------------------|---------------------------------|
A|3-----------3---3----------------|5---5-----------5----------------|
E|---------------------------------|---------------------------------|

G|---------------------------------|---------------------------------|
D|---------------------------------|---------------------------------|
A|---------------------------------|---------------------------------|
E|0--------------------------------|---------------------------------|



**********************************************************************

/ = Slide up
\ = Slide down
p = Pull off

**********************************************************************
ⓘ Bass guitar tab for 'Despite Repeated Warnings' by Paul McCartney, a male rock artist from Liverpool, England. Paul McCartney was born in 1942. Paul McCartney is known for his philosophical rock/pop music.

Almost there ...

Sign in to get your own page with links to favourite songs and more. You are just one click away...

Login with Facebook Login with Google