Guitar Tabs Explorer
Paul McCartney bass tabs for Dance tonight

Dance Tonight bass tab by Paul McCartney

Paul McCartney bass tabs for Dance tonight

Bass tabs

G|---------------------------------|---------------------------------|
D|---------------------------------|---------------------------------|
A|---------------------------------|--------------------8---\--------|
E|---------------------------------|---------------------------------|
Chorus : 00:16
G|---------------------------------|---------------------------------|
D|---------------------------------|---------------------------------|
A|---------------------------------|---------------------------------|
E|1-------1-------1-------1--------|1-------1-------1-------1---1----|

G|---------------------------------|---------------------------------|
D|---------------------------------|---------------------------------|
A|---------------------------------|---------------------------------|
E|1-------1-------1-------1--------|1-------1-------1-------1--------|

G|---------------------------------|---------------------------------|
D|---------------------------------|---------------------------------|
A|---------------------------------|---------------------------------|
E|1-------1-------1-------1--------|1-------1-------1-------1---1----|

G|---------------------------------|---------------------------------|
D|---------------------------------|---------------------------------|
A|1-------1-------3-------3--------|---------------------------------|
E|---------------------------------|1-------1-------1-------1--------|


Verse 1 :
G|---------------------------------|---------------------------------|
D|---------------------------------|---------------------------------|
A|---------------------------------|---------------------------------|
E|3-------3-------3-------3--------|1-------1-------1-------1---2----|

G|---------------------------------|---------------------------------|
D|---------------------------------|---------------------------------|
A|---------------------------------|3-------3-------3-------3--------|
E|3-------3-------3-------3--------|---------------------------------|
Chorus :
G|---------------------------------|---------------------------------|
D|3-------3------------------------|3-------3------------------------|
A|----------------3-------3--------|----------------3-------3--------|
E|---------------------------------|---------------------------------|

G|---------------------------------|---------------------------------|
D|---------------------------------|3-------3-------3-------3--------|
A|1-------1-------3-------3--------|----------------------------3----|
E|---------------------------------|---------------------------------|

Whistling :
G|---------------------------------|---------------------------------|
D|3-------3-------3-------3--------|3-------3-------3-------3--------|
A|---------------------------------|---------------------------------|
E|---------------------------------|---------------------------------|

G|---------------------------------|---------------------------------|
D|---------------------------------|3-------3-------3-------3--------|
A|1-------1-------3-------3--------|---------------------------------|
E|---------------------------------|---------------------------------|


Verse 2 :
G|---------------------------------|---------------------------------|
D|---------------------------------|---------------------------------|
A|---------------------------------|---------------------------------|
E|3-------3-------3-------3--------|1-------1-------1-------1---2----|

G|---------------------------------|---------------------------------|
D|---------------------------------|------------------------0---2----|
A|---------------------------------|3-------3-------3----------------|
E|3-------3-------3-------3--------|---------------------------------|


Chorus :
G|---------------------------------|---------------------------------|
D|---------------------------------|---------------------------------|
A|---------------------------------|---------------------------------|
E|1-------1-------1-------1---1----|1-------1-------1-------1---1----|

G|---------------------------------|---------------------------------|
D|---------------------------------|---------------------------------|
A|---------------------------------|----------------------------0----|
E|1-------1-------1-------1--------|1-------1-------1-------1--------|


Solo :
G|---------------------------------|---------------------------------|
D|---------------------------------|---------------------------------|
A|1-------1-------1-------1---1----|1-------1-------1-------1---0----|
E|---------------------------------|---------------------------------|

G|---------------------------------|---------------------------------|
D|---------------------------------|---------------------------------|
A|---------------------------------|----------------------------0----|
E|3-------3-------3-------3--------|3-------3-------3-------3--------|

G|---------------------------------|---------------------------------|
D|---------------------------------|---------------------------------|
A|1-------1-------1-------1--------|1-------1-------1-------1---0----|
E|---------------------------------|---------------------------------|

G|---------------------------------|---------------------------------|
D|---------------------------------|---------------------------------|
A|---------------------------------|---------------------------------|
E|3-------3-------3-------3--------|3-------3---3---3-------\--------|


Chorus : (only mandolin)
G|---------------------------------|---------------------------------|
D|---------------------------------|---------------------------------|
A|---------------------------------|---------------------------------|
E|---------------------------------|---------------------------------|

G|---------------------------------|---------------------------------|
D|---------------------------------|---------------------------------|
A|---------------------------------|---------------------------------|
E|---------------------------------|---------------------------------|

Then bass and drums :
G|---------------------------------|---------------------------------|
D|---------------------------------|---------------------------------|
A|---------------------------------|---------------------------------|
E|1-------1-------1-------1--------|1-------1-------1-------1--------|

G|---------------------------------|---------------------------------|
D|---------------------------------|---------------------------------|
A|1-------1-------3-------3--------|---------------------------------|
E|---------------------------------|1-------1-------1-------1---1----|


Verse 3 :
G|---------------------------------|---------------------------------|
D|---------------------------------|---------------------------------|
A|---------------------------------|---------------------------------|
E|3-------3-------3-------3--------|1-------1-------1-------1---2----|

G|---------------------------------|---------------------------------|
D|---------------------------------|---------------------------------|
A|---------------------------------|3-------3-------3-------3--------|
E|3-------3-------3-------3--------|---------------------------------|


Chorus : (Repeat)
G|---------------------------------|---------------------------------|
D|---------------------------------|---------------------------------|
A|---------------------------------|---------------------------------|
E|1-------1-------1-------1--------|1-------1-------1-------1---1----|
ⓘ Bass guitar tab for 'Dance Tonight' by Paul McCartney, a male rock artist from Liverpool, England. Paul McCartney was born in 1942. Paul McCartney is known for his philosophical rock/pop music.