Log in

One click and you are in

Login with Facebook Login with Google

Why sign up and log in

Guitar Tabs Explorer
Paul McCartney bass tabs for Coming up

Bass tabs

m/mc_cartney/COMING_UP.btab            ;Words & Music by McCartney

Basstab by Jan Bjorklund, Finland <jani_bjorklund@yahoo.se>
You are welcome to request for basstabs!
Fingering and positions as suggested by TablEdit, please use common sense!
TablEdited by Jan Bjorklund

Tuning : E A D G 	Time Signature: 4/4

 |        |        |        |
|------------------------------------------------------------------|
|------------------------------------------------------------------|
|------------------------------------------------------------------|
|-0-----------------------0-------0--------------------------------|

 |        |        |        |
|------------------------------------------------------------------|
|------------------------------------------------------------------|
|-------------------------------------------------2----------------|
|-0-----------------------0-------4--------------------------------|

 |        |        |        |
|------------------------------------------------------------------|
|------------------------------------------------------------------|
|------------------------------------------------------------------|
|-0-----------------------0-------0--------------------------------|

 |        |        |        |
|------------------------------------------------------------------|
|------------------------------------------------------------------|
|-------------------------------------------------2----------------|
|-0---------------------0---------4--------------------------------|

 |        |        |        |
||-----------------------------------------------------------------|
|*-----------------------------------------------------------------|
|*-----------------------------------------------------------------|
||0-----------------------0-------0--------------------------------|

 |        |        |        |
|------------------------------------------------------------------|
|------------------------------------------------------------------|
|-------------------------------------------------2----------------|
|-0-----------------------0-------4--------------------------------|

 |        |        |        |
|------------------------------------------------------------------|
|------------------------------------------------------------------|
|------------------------------------------------------------------|
|-0-----------------------0-------0--------------------------------|

 |        |        |        |
|-----------------------------------------------------------------||
|-----------------------------------------------------------------||
|-------------------------------------------------2---------------||
|-0-----------------------0-------4-------------------------------||

>1|        |        |        |
|------------------------------------------------------------------|
|------------------------------------------------------------------|
|------------------------------------------------------------------|
|-0-----------------------0-------0--------------------------------|

 |        |        |        |
|------------------------------------------------------------------|
|------------------------------------------------------------------|
|-------------------------------------------------2----------------|
|-0-----------------------0-------4--------------------------------|

 |        |        |        |
|------------------------------------------------------------------|
|------------------------------------------------------------------|
|------------------------------------------------------------------|
|-0-----------------------0-------0--------------------------------|

 |        |        |        |
|------------------------------------------------------------------|
|------------------------------------------------------------------|
|-------------------------------------------------2----------------|
|-0---------------------0---------4--------------------------------|

 |        |        |        |
|------------------------------------------------------------------|
|------------------------------------------------------------------|
|------------------------------------------------------------------|
|-0-----------------------0-------0--------------------------------|

 |        |        |        |
|------------------------------------------------------------------|
|------------------------------------------------------------------|
|-------------------------------------------------2----------------|
|-0-----------------------0-------4--------------------------------|

 |        |        |        |
|------------------------------------------------------------------|
|------------------------------------------------------------------|
|------------------------------------------------------------------|
|-0-----------------------0-------0--------------------------------|

 |        |        |        |
|-----------------9------------------------------------------------|
|------------------------------------------------------------------|
|-----------------7------------------------------------------------|
|-0----------------------------------------------------------------|

 |        |        |        |
|-----------------2-------------------------------4----------------|
|------------------------------------------------------------------|
|---------------------------------2-----------------------2--------|
|-5-----------------------5----------------------------------------|

 |        |        |        |
|-----------------6-------------------------------7----------------|
|------------------------------------------------------------------|
|-4-----------------------4-------5-----------------------5---6----|
|------------------------------------------------------------------|

 |        |        |        |
|------------------------------------------------------------------|
|-2---------------2-------------------------------4----------------|
|------------------------------------------------------------------|
|-------------------------0-------2-----------------------2--------|

 |        |        |        |
|---------0-----------------------1--------------------------------|
|------------------------------------------------------------------|
|------------------------------------------------------------------|
|-3---------------3-------4-----------------------4----------------|

 |        |        |        |
|-----------------2-------------------------------4----------------|
|------------------------------------------------------------------|
|---------------------------------2-----------------------2--------|
|-5-----------------------5----------------------------------------|

 |        |        |        |
|-----------------6-------------------------------7----------------|
|------------------------------------------------------------------|
|-4-----------------------4-------5-----------------------5---6----|
|------------------------------------------------------------------|

 |        |        |        |
|------------------------------------------------------------------|
|-2---------------2-------------------------------4----------------|
|------------------------------------------------------------------|
|-------------------------0-------2-----------------------2--------|

 |        |        |        |
|---------0-----------------------1-------------------------------||
|-----------------------------------------------------------------*|
|-----------------------------------------------------------------*|
|-3---------------3-------4---------------------------------------||

>2|        |        |        |
|------------------------------------------------------------------|
|------------------------------------------------------------------|
|------------------------------------------------------------------|
|-0-----------------------0-------0--------------------------------|

 |        |        |        |
|------------------------------------------------------------------|
|------------------------------------------------------------------|
|-------------------------------------------------2----------------|
|-0-----------------------0-------4--------------------------------|

 |        |        |        |
|------------------------------------------------------------------|
|------------------------------------------------------------------|
|------------------------------------------------------------------|
|-0-----------------------0-------0--------------------------------|

 |        |        |        |
|------------------------------------------------------------------|
|------------------------------------------------------------------|
|-------------------------------------------------2----------------|
|-0---------------------0---------4--------------------------------|

 |        |        |        |
|------------------------------------------------------------------|
|------------------------------------------------------------------|
|------------------------------------------------------------------|
|-0-----------------------0-------0--------------------------------|

 |        |        |        |
|------------------------------------------------------------------|
|------------------------------------------------------------------|
|-------------------------------------------------2----------------|
|-0-----------------------0-------4--------------------------------|

 |        |        |        |
|-----------------2-------------------------------4----------------|
|------------------------------------------------------------------|
|---------------------------------2-----------------------2--------|
|-5-----------------------5----------------------------------------|

 |        |        |        |
|-----------------6-------------------------------7----------------|
|------------------------------------------------------------------|
|-4-----------------------4-------5-----------------------5---6----|
|------------------------------------------------------------------|

 |        |        |        |
|------------------------------------------------------------------|
|------------------------------------------------------------------|
|-------------------------------------------------2----------------|
|-0-----------------------0-------4--------------------------------|

 |        |        |        |
|------------------------------------------------------------------|
|------------------------------------------------------------------|
|-0-------0-----------------------0-------0------------------------|
|-------------------------3----------------------------------------|

 |        |        |        |
|------------------------------------------------------------------|
|------------------------------------------------------------------|
|-0-------0-----------------------0--------------------------------|
|-------------------------3-------------------------------3--------|

 |        |        |        |
|------------------------------------------------------------------|
|------------------------------------------------------------------|
|-0-------0-----------------------0---------------0----------------|
|-------------------------3-------------------------------3--------|

 |        |        |        |
|-------------------------------------------------0----------------|
|-----------------------------------------2------------------------|
|-0-----------0---2-------3-------4--------------------------------|
|------------------------------------------------------------------|

 |        |        |        |
|------------------------------------------------------------------|
|------------------------------------------------------------------|
|------------------------------------------------------------------|
|-0-----------------------0-------0-----------------------0--------|

 |        |        |        |
|------------------------------------------------------------------|
|------------------------------------------------------------------|
|------------------------------------------------------------------|
|-0-----------------------0-------4---------------2-------0--------|

 |        |        |        |
|------------------------------------------------------------------|
|------------------------------------------------------------------|
|------------------------------------------------------------------|
|-------------------------0-------0-----------------------0--------|

 |        |        |        |
|------------------------------------------------------------------|
|------------------------------------------------------------------|
|-----------------------------------------0-------3-------4--------|
|-0-------3---------------4----------------------------------------|

 |        |        |        |
|------------------------------------------------------------------|
|------------------------------------------------------------------|
|------------------------------------------------------------------|
|-0-----------------------0-------0--------------------------------|

 |        |        |        |
|------------------------------------------------------------------|
|------------------------------------------------------------------|
|-------------------------------------------------2----------------|
|-0-----------------------0-------4--------------------------------|

 |        |        |        |
|------------------------------------------------------------------|
|------------------------------------------------------------------|
|------------------------------------------------------------------|
|-0-----------------------0-------0--------------------------------|

 |        |        |        |
|------------------------------------------------------------------|
|------------------------------------------------------------------|
|-------------------------------------------------2----------------|
|-0---------------------0---------4--------------------------------|

 |        |        |        |
|------------------------------------------------------------------|
|------------------------------------------------------------------|
|------------------------------------------------------------------|
|-0-----------------------0-------0--------------------------------|

 |        |        |        |
|------------------------------------------------------------------|
|------------------------------------------------------------------|
|-------------------------------------------------2----------------|
|-0-----------------------0-------4--------------------------------|

 |        |        |        |
|------------------------------------------------------------------|
|------------------------------------------------------------------|
|------------------------------------------------------------------|
|-0-----------------------0-------0--------------------------------|

 |        |        |        |
|------------------------------------------------------------------|
|-----------------2------------------------------------------------|
|------------------------------------------------------------------|
|-0----------------------------------------------------------------|

 |        |        |        |
|-----------------2-------------------------------4----------------|
|------------------------------------------------------------------|
|---------------------------------2-----------------------2--------|
|-5-----------------------5----------------------------------------|

 |        |        |        |
|-----------------6-------------------------------7----------------|
|------------------------------------------------------------------|
|-4-----------------------4-------5-----------------------5---6----|
|------------------------------------------------------------------|

 |        |        |        |
|------------------------------------------------------------------|
|-2---------------2-------------------------------4----------------|
|------------------------------------------------------------------|
|-------------------------0-------2-----------------------2--------|

 |        |        |        |
|---------0-----------------------1-----------------------1--------|
|------------------------------------------------------------------|
|------------------------------------------------------------------|
|-3---------------3-------4-----------------------4----------------|

 |        |        |        |
|-----------------2------------------------------------------------|
|------------------------------------------------------------------|
|-0-----------------------0-------2-----------------------2--------|
|------------------------------------------------------------------|

 |        |        |        |
||-----------------------------------------------------------------|
|*-----------------------------------------------------------------|
|*-----------------------------------------------------------------|
||-----------------------------------------------------------------|

 |        |        |        |
|-----------------------------------------------------------------||
|-----------------------------------------------------------------*|
|-----------------------------------------------------------------*|
|-----------------------------------------------------------------||

 |        |        |        |
|------------------------------------------------------------------|
|------------------------------------------------------------------|
|------------------------------------------------------------------|
|-0-----------------------0-------0--------------------------------|

 |        |        |        |
|------------------------------------------------------------------|
|------------------------------------------------------------------|
|-------------------------------------------------2----------------|
|-0---------------------0---------4--------------------------------|

 |        |        |        |
|------------------------------------------------------------------|
|------------------------------------------------------------------|
|------------------------------------------------------------------|
|-0-----------------------0-------0--------------------------------|

 |        |        |        |
|------------------------------------------------------------------|
|-2---------------2-------------------------------4----------------|
|------------------------------------------------------------------|
|-------------------------0-------2-----------------------2--------|

 |        |        |        |
|---------0-----------------------1--------------------------------|
|------------------------------------------------------------------|
|------------------------------------------------------------------|
|-3---------------3-------4----------------------------------------|

 |        |        |        |
|-----------------2-------------------------------4----------------|
|------------------------------------------------------------------|
|---------------------------------2-----------------------2--------|
|-5-----------------------5----------------------------------------|

 |        |        |        |
|---------0-----------------------1-----------------------1--------|
|------------------------------------------------------------------|
|------------------------------------------------------------------|
|-3---------------3-------4-----------------------4----------------|

 |        |        |        |
|-----------------2-------------------------------4----------------|
|------------------------------------------------------------------|
|---------------------------------2-----------------------2--------|
|-5-----------------------5----------------------------------------|

 |        |        |        |
|-----------------6-------------------------------7----------------|
|------------------------------------------------------------------|
|-4-----------------------4-------5-----------------------5---6----|
|------------------------------------------------------------------|

 |        |        |        |
|------------------------------------------------------------------|
|-2---------------2-------------------------------4----------------|
|------------------------------------------------------------------|
|-------------------------0-------2-----------------------2--------|

 |        |        |        |
|---------0-----------------------1--------------------------------|
|------------------------------------------------------------------|
|------------------------------------------------------------------|
|-3---------------3-------4----------------------------------------|

 |        |        |        |
|------------------------------------------------------------------|
|------------------------------------------------------------------|
|-0-------------------------------2--------------------------------|
|------------------------------------------------------------------|

 |        |        |        |
|------------------------------------------------------------------|
|---------------------------------0--------------------------------|
|-4----------------------------------------------------------------|
|------------------------------------------------------------------|

 |        |        |        |
|------------------------------------------------------------------|
|------------------------------------------------------------------|
|------------------------------------------------------------------|
|-0----------------------------------------------------------------|




............................................................

Almost there ...

Sign in to get your own page with links to favourite songs and more. You are just one click away...

Login with Facebook Login with Google