Log in

One click and you are in

Login with Facebook Login with Google

Why sign up and log in

Guitar Tabs Explorer
Paul McCartney bass tabs for Bogey music

Bass tabs

Mc Cartney-Bogey Music.btab

TablEdited by Jan Bjorklund, Finland <jani_bjorklund@yahoo.se>
You are welcome to request for tabs!
Fingering and positions as suggested by TablEdit, please use common sense!

TablEdited by Jan Bjorklund

Tuning : E A D G 	Time Signature: 4/4

 |    |    |    |    >3|    |    |    |
||---------------------------------|-2-------------------------------||
|*----------------2-------4--------|---------4-------2---------------*|
|*0-------4------------------------|-------------------------4-------*|
||---------------------------------|---------------------------------||

 |    |    |    |     |    |    |    |
|----------------------------------|-2--------------------------------|
|-----------------2-------4--------|---------4-------2-------1--------|
|-0-------4------------------------|----------------------------------|
|----------------------------------|----------------------------------|

 |    |    |    |     |    |    |    |
||----------------2-------4--------|-7-------4-----------------------||
|*--------4------------------------|-----------------7-------4-------*|
|*5--------------------------------|---------------------------------*|
||---------------------------------|---------------------------------||

 |    |    |    |    >3|    |    |    |
||----------------4-------6--------|-9-------6-----------------------||
|*--------6------------------------|-----------------9-------6---9---*|
|*7--------------------------------|---------------------------------*|
||---------------------------------|---------------------------------||

 |    |    |    |     |    |    |    |
|-----------------4-------6--------|-7-------6-------4----------------|
|---------6------------------------|-------------------------6--------|
|-7--------------------------------|----------------------------------|
|----------------------------------|----------------------------------|

 |    |    |    |     |    |    |    |
|-2--------------------------------|-2--------------------------------|
|-----------------2-------4--------|---------4-------2-----------2----|
|---------4------------------------|-------------------------4--------|
|----------------------------------|----------------------------------|

 |    |    |    |     |    |    |    |
||------------------------0--------|-2-------0---------------0--------|
|*0-------2-------3----------------|-----------------3----------------|
|*---------------------------------|----------------------------------|
||---------------------------------|----------------------------------|

 |    |    |    |    >1|    |    |    |
|-2-------------------------------||---------------------------------||
|---------2---------------2-------||-------------------------2-------*|
|-----------------4---------------||-0-------2-------4---------------*|
|---------------------------------||---------------------------------||

>4|    |    |    |     |    |    |    |
|----------------------------------|-2-----------2--------------------|
|-----------------2-------4--------|----------------------------------|
|-0-------4------------------------|----------------------------------|
|----------------------------------|----------------------------------|

 |    |    |    |     |    |    |    |
|-2--------------------------------|-----------------2-------4--------|
|---------4-------2----------------|---------4------------------------|
|-------------------------4--------|-5--------------------------------|
|----------------------------------|----------------------------------|

 |    |    |    |     |    |    |    |
|-5-------4-------2----------------|-----------------4-------6--------|
|-------------------------4--------|---------6------------------------|
|----------------------------------|-7--------------------------------|
|----------------------------------|----------------------------------|

 |    |    |    |     |    |    |    |
|-9-------6------------------------|----------------------------------|
|-----------------9-------6--------|-3-------0-------2-------3--------|
|----------------------------------|----------------------------------|
|----------------------------------|----------------------------------|

 |    |    |    |     |    |    |    |
|-0-------2-------0----------------|-------------------------0--------|
|-------------------------3--------|-0-------2-------3----------------|
|----------------------------------|----------------------------------|
|----------------------------------|----------------------------------|

 |    |    |    |     |    |    |    |
|-2-------0---------------0--------|----------------------------------|
|-----------------4----------------|----------------------------------|
|----------------------------------|-0-------2-------4-------1--------|
|----------------------------------|----------------------------------|

 |    |    |    |     |    |    |    |
|-7-------4------------------------|----------------------------------|
|-----------------7-------4--------|-----------------2-------4--------|
|----------------------------------|-0-------4------------------------|
|----------------------------------|----------------------------------|

 |    |    |    |     |    |    |    |
|-2-----------------------2--------|-2-----------------------2--------|
|----------------------------------|----------------------------------|
|-------------4---4----------------|-------------4---4----------------|
|----------------------------------|----------------------------------|

 |    |    |    |     |    |    |    |
|----------------------------------|----------------------------------|
|-------------------------2--------|-------------------------2--------|
|-0-----------4--------------------|-0-----------4--------------------|
|----------------------------------|----------------------------------|

 |    |    |    |     |    |    |    |
||---------------------------------|---------------------------------||
|*------------------------2--------|---------------------------------||
|*0-----------4--------------------|-0-------------------------------||
||---------------------------------|---------------------------------||

>1|    |    |    |     |    |    |    |
|-------------------------2--------|---------------------------------||
|-0-----------3--------------------|-0-------------------------------*|
|----------------------------------|---------------------------------*|
|----------------------------------|---------------------------------||

>2|    |    |    |     |    |    |    |
|-------------1-----------4--------|----------------------------------|
|-2--------------------------------|-2-----------0--------------------|
|----------------------------------|-------------------------2--------|
|----------------------------------|----------------------------------|

 |    |    |    |     |    |    |    |
|----------------------------------|-2--------------------------------|
|-----------------2-------4--------|----------------------------------|
|-0-------4------------------------|----------------------------------|
|----------------------------------|----------------------------------|

 |    |    |    |     |    |    |    |
|----------------------------------|----------------------------------|
|----------------------------------|----------------------------------|
|----------------------------------|---------0-------2-------4--------|
|----------------------------------|----------------------------------|

 |    |    |    |     |    |    |    |
|----------------------------------|-2-------2-------2-------2--------|
|-----------------2-------4--------|----------------------------------|
|-0-------4------------------------|----------------------------------|
|----------------------------------|----------------------------------|

 |    |    |    |     |    |    |    |
|-2--------------------------------||------------------------0--------|
|-----------------0-------2--------|*0-------2-------3----------------|
|---------4------------------------|*---------------------------------|
|----------------------------------||---------------------------------|

 |    |    |    |     |    |    |    |
|-2-------0------------------------|-2--------------------------------|
|-----------------3-------0--------|---------4-------2----------------|
|----------------------------------|-------------------------4--------|
|----------------------------------|----------------------------------|

 |    |    |    |     |    |    |    |
|---------------------------------||-2--------------------------------|
|---------------------------------*|---------2---------------2--------|
|-0-------0-------0-------0-------*|-----------------4----------------|
|---------------------------------||----------------------------------|

 |    |    |    |     |    |    |    |
|-------------------------2--------|-2-------2------------------------|
|-----------------2----------------|-----------------2-------2--------|
|-0-------4------------------------|----------------------------------|
|----------------------------------|----------------------------------|

 |    |    |    |     |    |    |    |
|----------------------------------|----------------------------------|
|----------------------------------|-0-------0-------2-------2--------|
|-4-------4-------0-------0--------|----------------------------------|
|----------------------------------|----------------------------------|

 |    |    |    |     |    |    |    |
|-----------------0-------0--------|-------------------------2--------|
|-3-------3------------------------|-----------------2----------------|
|----------------------------------|-0-------4------------------------|
|----------------------------------|----------------------------------|

 |    |    |    |     |    |    |    |
|-------------------------2--------|-------------------------2--------|
|-----------------2----------------|-----------------2----------------|
|-0-------4------------------------|-0-------4------------------------|
|----------------------------------|----------------------------------|

 |    |    |    |     |    |    |    |
|-------------------------2--------|----------------------------------|
|-----------------2----------------|----------------------------------|
|-0-------4------------------------|----------------------------------|
|----------------------------------|----------------------------------|



............................................................

Almost there ...

Sign in to get your own page with links to favourite songs and more. You are just one click away...

Login with Facebook Login with Google