Log in

One click and you are in

Login with Facebook Login with Google

Why sign up and log in

Guitar Tabs Explorer
Paul McCartney bass tabs for Bluebird

Bass tabs

m/mc_cartney/BLUEBIRD.btab            ;Words & Music by McCartney

TablEdited by Jan Bjorklund, Finland <jani_bjorklund@yahoo.se>
You are welcome to request for tabs!
Fingering and positions as suggested by TablEdit, please use common sense!

TablEdited by Jan Bjorklund

Tuning : E A D G 	Time Signature: 4/4

 |        |        |        |
|----------------------------------------------------------------|
|--------------------------------------------------------0-------|
|--------------------------------------------1---3---4-----------|
|3-------3-------3-------3-------3-------3-----------------------|

 |        |        |        |
|0-------0-------0-------0-------0-------0---------------0-------|
|----------------------------------------------------3-----------|
|------------------------------------------------3---------------|
|----------------------------------------------------------------|

 |        |        |        |
|----------------------------------------------------------------|
|3---------------------------------------------------------------|
|--------------------------------3-------------------------------|
|----------------------------------------------------------------|

 |        |        |        |
|----------------------------------------------------------------|
|----------------------------------------------------3-----------|
|1-------1-------1-------1-------1-------1-------3---------------|
|----------------------------------------------------------------|

 |        |        |        |
|----------------------------------------------------------------|
|3-----------------------3-------3-------------------------------|
|--------------------------------------------------------3-------|
|----------------------------------------------------------------|

 |        |        |        |
|----------------------------------------------------------------|
|--------------------------------------------------------0-------|
|1-----------------------1-------1-------------------------------|
|----------------------------------------------------------------|

 |        |        |        |
|----------------------------------------------------------------|
|1-----------------------1-------1-------------------------------|
|----------------------------------------------------------------|
|----------------------------------------------------------------|

 |        |        |        |
|----------------------------------------------------------------|
|----------------------------------------------------------------|
|----------------------------------------------------------------|
|4-----------------------4-------4-------------------------------|

 |        |        |        |
|----------------------------------------------------------------|
|1-----------------------1-------1-------------------------------|
|----------------------------------------------------------------|
|----------------------------------------------------------------|

 |        |        |        |
|----------------------------------------------------------------|
|----------------------------------------------------------------|
|----------------------------------------------------------------|
|4-----------------------4-------4---------------4---------------|

 |        |        |        |
|----------------------------------------------------------------|
|----------------------------------------------------0---3-------|
|----------------------------------------1---3---4---------------|
|3---------------3-------3-------3-------------------------------|

 |        |        |        |
|--------0-------0-------0-------0-------0---------------0-------|
|----------------------------------------------------------------|
|----------------------------------------------------------------|
|----------------------------------------------------------------|

 |        |        |        |
|----------------------------------------------------------------|
|3-----------------------3---------------3-----------------------|
|------------------------------------------------3---------------|
|--------------------------------1-------------------------------|

 |        |        |        |
|----------------------------------------------------------------|
|----------------------------------------------------------------|
|1-----------------------1-------1-------1-------1---3-----------|
|----------------------------------------------------------------|

 |        |        |        |
|----------------------------------------------------------------|
|3-----------------------3---------------3-----------------------|
|------------------------------------------------3---------------|
|--------------------------------1-------------------------------|

 |        |        |        |
|----------------------------------------------------------------|
|----------------------------------------------------------------|
|1-----------------------1-------1---------------1---------------|
|----------------------------------------------------------------|

 |        |        |        |
|----------------------------------------------------------------|
|1-----------------------1-----------------------1---------------|
|----------------------------------------------------------------|
|----------------------------------------------------------------|

 |        |        |        |
|----------------------------------------------------------------|
|----------------------------------------------------------------|
|----------------------------------------------------------------|
|4-------4---------------4-------4---------------4---------------|

 |        |        |        |
|----------------------------------------------------------------|
|1-----------------------1-----------------------1---------------|
|----------------------------------------------------------------|
|----------------------------------------------------------------|

 |        |        |        |
|----------------------------------------------------------------|
|----------------------------------------------------------------|
|----------------------------------------------------------------|
|4-------4---------------4-------4---------------4---------------|

 |        |        |        |
|----------------------------------------------------------------|
|----------------------------------------------------------------|
|3-------------------------------1-------------------------------|
|----------------------------------------------------------------|

 |        |        |        |
|----------------------------------------------------------------|
|0---------------------------------------------------------------|
|----------------------------------------------------------------|
|--------------------------------3---------------3-------3-------|

 |        |        |        |
|----------------------------------------------------------------|
|--------------------------------------------------------1-------|
|3-------------------------------1-------------------------------|
|----------------------------------------------------------------|

 |        |        |        |
|----------------------------------------------------------------|
|0---------------------------------------------------------------|
|----------------------------------------------------------------|
|--------------------------------3---------------3-------3-------|

 |        |        |        |
|----------------------------------------------------------------|
|--------------------------------------------------------0-------|
|----------------------------------------------------------------|
|4-----------------------4-------4-------4-------4---------------|

 |        |        |        |
|----------------------------------------------------------------|
|1---------------------------------------------------------------|
|----------------------------------------------------------------|
|----------------------------------------------------------------|

 |        |        |        |
|----------------------------------------------------------------|
|----------------------------------------------------0---3-------|
|----------------------------------------1---3---4---------------|
|3---------------3-------3-------3-------------------------------|

 |        |        |        |
|----------------0---------------0-------0-------0-----------0---|
|--------------------------------------------------------3-------|
|----------------------------------------------------3-----------|
|----------------------------------------------------------------|

 |        |        |        |
|----------------------------------------------------------------|
|3-----------------------3-------3-------------------------------|
|------------------------------------------------3---------------|
|----------------------------------------------------------------|

 |        |        |        |
|----------------3-----------------------------------------------|
|----------------------------------------------------------------|
|1-----------------------1-------1---------------1---------------|
|----------------------------------------------------------------|

 |        |        |        |
|--------------------------------------------------------3-------|
|------------------------3---------------------------------------|
|----------------3-----------------------------------------------|
|1-------1-------------------------------------------------------|

 |        |        |        |
|----------------------------------------------------------------|
|----------------------------------------------------------------|
|1-------1-------1-------1-----------------------1---------------|
|----------------------------------------------------------------|

 |        |        |        |
|----------------------------------------------------------------|
|1-----------------------1-----------------------1---------------|
|----------------------------------------------------------------|
|----------------------------------------------------------------|

 |        |        |        |
|1---------------0-------------------------------1---------------|
|--------------------------------3-------------------------------|
|----------------------------------------------------------------|
|----------------------------------------------------------------|

 |        |        |        |
|----------------------------------------------------------------|
|1-----------------------1---------------------------------------|
|----------------------------------------------------------------|
|----------------------------------------------------------------|

 |        |        |        |
|----------------------------------------------------------------|
|----------------------------------------------------------------|
|----------------------------------------------------------------|
|4-----------------------4-------4---------------4---------------|

 |        |        |        |
|----------------------------------------------------------------|
|----------------------------------------------------------------|
|3-------------------------------1-------------------------------|
|----------------------------------------------------------------|

 |        |        |        |
|----------------------------------------------------------------|
|0---------------------------------------------------------------|
|----------------------------------------------------------------|
|--------------------------------3-------3-----------------------|

 |        |        |        |
|----------------------------------------------------------------|
|----------------------------------------------------------------|
|3-------------------------------1-------------------------------|
|----------------------------------------------------------------|

 |        |        |        |
|----------------------------------------------------------------|
|0---------------------------------------------------------------|
|----------------------------------------------------------------|
|--------------------------------3-------------------------------|

 |        |        |        |
|----------------------------------------------------------------|
|----------------------------------------------------------------|
|----------------------------------------------------------------|
|4-----------------------4-------4-------4-------4-------4-------|

 |        |        |        |
|----------------------------------------------------------------|
|1---------------------------------------------------------------|
|----------------------------------------------------------------|
|----------------------------------------------------------------|

 |        |        |        |
|----------------------------------------------------------------|
|----------------------------------------------------0---3-------|
|--------------------------------------------1---3---------------|
|3---------------3-------3-------3-------3-----------------------|

 |        |        |        |
|0---------------0-------0-------0-------0-------------------0---|
|----------------------------------------------------0---3-------|
|------------------------------------------------3---------------|
|----------------------------------------------------------------|

 |        |        |        |
|----------------------------------------------------------------|
|3-----------------------3-------3-------------------------------|
|------------------------------------------------3---------------|
|----------------------------------------------------------------|

 |        |        |        |
|--------------------------------------------------------3-------|
|----------------------------------------------------------------|
|1-----------------------1-------1-------------------------------|
|----------------------------------------------------------------|

 |        |        |        |
|----------------------------------------------------------------|
|3-----------------------3-------3-------------------------------|
|--------------------------------------------------------3-------|
|----------------------------------------1-----------------------|

 |        |        |        |
|----------------------------------------------------------------|
|----------------------------------------------------------------|
|1-----------------------1-------1-------------------------------|
|----------------------------------------------------------------|

 |        |        |        |
|----------------------------------------------------------------|
|1-----------------------1-------1-------------------------------|
|----------------------------------------------------------------|
|----------------------------------------------------------------|

 |        |        |        |
|----------------------------------------------------------------|
|----------------------------------------------------------------|
|----------------------------------------------------------------|
|4-----------------------4-------4-------------------------------|

 |        |        |        |
|----------------------------------------------------------------|
|1-----------------------1-------1-------1---------------1-------|
|----------------------------------------------------------------|
|----------------------------------------------------------------|

 |        |        |        |
|----------------------------------------------------------------|
|----------------------------------------------------------------|
|----------------------------------------------------------------|
|4-------4---------------4-------4-------4-----------------------|

 |        |        |        |
|----------------------------------------------------------------|
|--------------------------------------------------------1-------|
|3-------------------------------1-------------------------------|
|----------------------------------------------------------------|

 |        |        |        |
|----------------------------------------------------------------|
|0---------------------------------------------------------------|
|----------------------------------------------------------------|
|--------------------------------3-------------------------------|

 |        |        |        |
|----------------------------------------------------------------|
|----------------------------------------------------------------|
|3-------------------------------1-------------------------------|
|----------------------------------------------------------------|

 |        |        |        |
|----------------------------------------0---------------0-------|
|0---------------------------------------------------------------|
|----------------------------------------------------------------|
|--------------------------------3-------------------------------|

 |        |        |        |
|----------------------------------------------------------------|
|--------------------------------------------------------0-------|
|----------------------------------------------------------------|
|4-----------------------4-------4-------4-------4---------------|

 |        |        |        |
|----------------------------------------------------------------|
|1---------------------------------------------------------------|
|----------------------------------------------------------------|
|----------------------------------------------------------------|

 |        |        |        |
|----------------------------------------------------------------|
|--------------------------------------------------------0-------|
|------------------------------------------------1---3-----------|
|3-----------------------3-------3-------------------------------|

 |        |        |        |
|------------------------0-------0-------0-------0---------------|
|----------------------------------------------------------------|
|----------------------------------------------------------------|
|----------------------------------------------------------------|

 |        |        |        |
|----------------------------------------------------------------|
|3-----------------------3-------3-------------------------------|
|------------------------------------------------3---------------|
|----------------------------------------------------------------|

 |        |        |        |
|----------------------------------------------------------------|
|----------------------------------------------------------------|
|1-----------------------1-------1-------------------------------|
|----------------------------------------------------------------|

 |        |        |        |
|----------------------------------------------------------------|
|3-----------------------3-------3-------------------------------|
|------------------------------------------------3---------------|
|----------------------------------------------------------------|

 |        |        |        |
|----------------------------------------------------------------|
|----------------------------------------------------------------|
|1---------------------------------------------------------------|
|----------------------------------------------------------------|

 |        |        |        |
|----------------------------------------------------------------|
|1-----------------------1-----------------------1---------------|
|----------------------------------------------------------------|
|----------------------------------------------------------------|

 |        |        |        |
|----------------------------------------------------------------|
|----------------------------------------------------------------|
|3---------------------------------------------------------------|
|------------------------4---------------------------------------|

 |        |        |        |
|----------------------------------------------------------------|
|1---------------0-----------------------------------------------|
|--------------------------------3---------------2---------------|
|----------------------------------------------------------------|

 |        |        |        |
|----------------------------------------------------------------|
|--------------------------------------------------------1-------|
|3-------------------------------1-------------------------------|
|----------------------------------------------------------------|

 |        |        |        |
|----------------------------------------0---------------0-------|
|0---------------------------------------------------------------|
|----------------------------------------------------------------|
|--------------------------------3-------------------------------|

 |        |        |        |
|----------------------------------------------------------------|
|----------------------------------------------------------------|
|3-------------------------------1-------------------------------|
|----------------------------------------------------------------|

 |        |        |        |
|----------------------------------------0---------------0-------|
|0---------------------------------------------------------------|
|----------------------------------------------------------------|
|--------------------------------3-------------------------------|

 |        |        |        |
|----------------------------------------------------------------|
|----------------------------------------------------------------|
|----------------------------------------------------------------|
|4-----------------------4-------4---------------------------4---|

 |        |        |        |
|----------------------------------------------------------------|
|1---------------------------------------------------------------|
|----------------------------------------------------------------|
|----------------------------------------------------------------|





............................................................

Almost there ...

Sign in to get your own page with links to favourite songs and more. You are just one click away...

Login with Facebook Login with Google