Log in

One click and you are in

Login with Facebook Login with Google

Why sign up and log in

Guitar Tabs Explorer
Paul McCartney bass tabs for Big barn bed

Bass tabs

m/mc_cartney/Big_Barn_Bed.btab

TablEdited by Jan Bjorklund, Finland <jani_bjorklund@yahoo.se>
You are welcome to request for tabs!
Fingering and positions as suggested by TablEdit, please use common sense!

TablEdited by Jan Bjorklund

Tuning : E A D G 	Time Signature: 2/2

 |        |        |        |
|--------------------------------|--------------------------------|
|3---------------3---------------|3---------------3---------------|
|--------------------------------|--------------------------------|
|--------------------------------|--------------------------------|

 |        |        |        |
|--------------------------------|--------5-------3---2-----------|
|3---------------3---------------|3-----------------------3-------|
|--------------------------------|--------------------------------|
|--------------------------------|--------------------------------|

 |        |        |        |
|--------------------------------|--------------------------------|
|3---------------3---------------|3---------------3---------------|
|--------------------------------|--------------------------------|
|--------------------------------|--------------------------------|

 |        |        |        |
|--------------------------------|--------------------------------|
|1---------------1---------------|0---------------0---------------|
|--------------------------------|--------------------------------|
|--------------------------------|--------------------------------|

 |        |        |        |
|--------------------------------|--------------------------------|
|3---------------3---------------|3-------3-------3-------3-------|
|--------------------------------|--------------------------------|
|--------------------------------|--------------------------------|

 |        |        |        |
|--------------------------------|--------------------------------|
|1-------1-------1---------------|--------------------------------|
|--------------------------------|1-------1-------1---------------|
|--------------------------------|--------------------------------|

 |        |        |        |
|--------------------------------|--------------------------------|
|3---------------3---------------|3-------3-------3-------3-------|
|--------------------------------|--------------------------------|
|--------------------------------|--------------------------------|

 |        |        |        |
|------------------------5-------|--------------------------------|
|3-------3-----------------------|3---------------3-------3-------|
|--------------------------------|--------------------------------|
|--------------------------------|--------------------------------|

 |        |        |        |
|------------------------5-------|------------5-----------5-------|
|3-------3-----------------------|3-------------------3-----------|
|--------------------------------|--------------------------------|
|--------------------------------|--------------------------------|

 |        |        |        |
|--------5-----------------------|--------5-----------------------|
|3---------------3---------------|3---------------3---------------|
|--------------------------------|--------------------------------|
|--------------------------------|--------------------------------|

 |        |        |        |
|--------5-----------------------|--------2-----------------------|
|3---------------3---------------|3-----------------------0-------|
|--------------------------------|----------------3---------------|
|--------------------------------|--------------------------------|

 |        |        |        |
|--------------------------------|--------------------------------|
|3---------------3---------------|3---------------3---------------|
|--------------------------------|--------------------------------|
|--------------------------------|--------------------------------|

 |        |        |        |
|--------------------------------|--------------------------------|
|3-------------------------------|--------------------------------|
|--------------------------------|--------------------------------|
|--------------------------------|--------------------------------|

Other versions of Big Barn Bed

Big barn bed (Ver. 2)Bass tabs

Almost there ...

Sign in to get your own page with links to favourite songs and more. You are just one click away...

Login with Facebook Login with Google