Guitar Tabs Explorer
Paul McCartney bass tabs for Big barn bed (Ver. 2)

Big Barn Bed bass tab by Paul McCartney (Ver. 2)

Paul McCartney bass tabs for Big barn bed (Ver. 2)

Bass tabs

The song is in 2/2 timing


  0:00 (Intro)

 G|-------------------------------|-------------------------------|
 D|-------------------------------|-------------8\10-8----------10|
 A|----8---8---8-------8---8---8--|----8---8---8-------8---8---8--|
 E|-------------------------------|-------------------------------|

                            0:21 (Who's that coming 'round...)

 G|-------------------------------|-------------------------------|
 D|8-7-----------8\10-8---------10|8-7------------10-8------------|
 A|----8---8---8-------8---8---8--|---88---8---8-------8---8---8--|
 E|-------------------------------|-------------------------------|
 G|-------------------------------|-------------------------------|
 D|-------------10-8-7------------|-------------10-8-7------------|
 A|8---8---8---8------88---8---8--|8---8---8---8------88---8---8--|
 E|-------------------------------|-------------------------------|

                            0:42 (Keep on...)

 G|-------------------------------|-------------------------------|
 D|-------------------------------|-------------------------------|
 A|8---8---8---8---8---6---6---5--|5---8---8---8---8---6-5-6------|
 E|-------------------------------|----------------------------5-6|


 G|-------------------------------|-------------------------------|
 D|-------------------------------|-------------------------------|
 A|----8---8---8---8---6-5-6------|----8---8---8---8---6-5-6------|
 E|8---------------------------5-6|8-----------------------------5|

                            1:03 (Instrumental Break)

 G|-------------------------------|--------------------------10--12/17
 D|-------------------------------|-------------------------------|
 A|----8---8---8---8---6-5-6------|----8---8---8---8---8----------|
 E|6-8---------------------------5|6-8----------------------------|

                            1:14 (Who you gonna weep on...)

 G|15----12\17-15-----------10-\17|15-----12\17-------------------|
 D|-------------------------------|------------15-----------------|
 A|----8---------------8----------|----8---------------8---8---8--|
 E|-------------------------------|-------------------------------|

                            1:24 (Keep on...)

 G|-------------------------------|-------------------------------|
 D|-------------------------------|-------------------------------|
 A|8---8---8---8-------8---8---8--|8---8---8---8-------6---6------|
 E|--------------5-6-8------------|--------------5-6-8---------5-6|

 G|-------------------------------|-------------------------------|
 D|-------------------------------|-------------------------------|
 A|----8---8---8---8---6-5-6------|----8---8---8---8---6-5-6------|
 E|8-----------------------------5|6-8---------------------------5|

                            1:46 (Guitar solo)

 G|-------------------------------|-------------------------------|
 D|-------------------------------|-------------------------------|
 A|----8---8---8---8---6-5-6------|--6-8---8---8---8---6---6---6--|
 E|6-8-------------------------5-6|8------------------------------|
 G|-------------------------------|-------------------------------|
 D|-------------10-8-7------------|-----------8\10-8-7------------|
 A|6---8---8---8------86---6---6--|6---8---8----------86---6---6--|
 E|-------------------------------|-------------------------------|

                            2:07 (Keep on...)

 G|-------------------------------|-------------------------------|
 D|-------------------------------|-------------------------------|
 A|6-7-8---8---8---8---6---6---5--|5-6-8---8---8---8---6-5-6------|
 E|-------------------------------|----------------------------5-6|


 G|-------------------------------|-------------------------------|
 D|-------------------------------|-------------------------------|
 A|----8---8---8---8---6-5-6------|----8---8---8---8---6-5-6------|
 E|8-----------------------------5|6-8-------------------------5-6|

                            2:28 (Instrumental Break)

 G|-------------------------------|--------------------------10--12/17
 D|-------------------------------|-------------------------------|
 A|----8---8---8---8---6-5-6------|----8---8---8---8---8----------|
 E|8-----------------------------5|6-8----------------------------|

                            2:39 (Who you gonna weep on...)

 G|15----12\17---15---------10-\17|15-----12\17-------------------|
 D|-------------------------------|-------------------------------|
 A|----8---------------8----------|----8---------------8---8---8--|
 E|-------------------------------|-------------------------------|

                            2:49 (Keep on...)

 G|-------------------------------|-------------------------------|
 D|-------------------------------|-------------------------------|
 A|8---8---8---8-------8---8---8--|8---8---8---8-------6---6------|
 E|--------------5-6-8------------|--------------5-6-8---------5-6|


 G|-------------------------------|-------------------------------|
 D|-------------------------------|-------------------------------|
 A|----8---8---8---8---6-5-6------|----8---8---8---8---6-5-6------|
 E|8-----------------------------5|6-8-------------------------5-6|


 G|-------------------------------|-------------------------------|
 D|-------------------------------|-------------------------------|
 A|----8---8---8---8---6-5-6------|--6-8---8---8---8---6-5-6------|
 E|8---------------------------5-6|8---------------------------5-6|


 G|-------------------------------|-------------------------------|
 D|-------------------------------|-------------------------------|
 A|----8---8---8---8---6-5-6------|----8---8---8---8---6-5-6------|
 E|8-----------------------------5|6-8---------------------------5|


 G|-------------------------------|-------------------------------|
 D|-------------------------------|-------------------------------|
 A|----8---8---8---8---6-5-6------|----8---8---8---8---6-5-6------|
 E|8---------------------------5-6|8---------------------------5-6|


 G|-------------------------------|-------------------------------|
 D|-------------------------------|-------------------------------|
 A|----8---8---8---8---6-5-6------|--6-8-------8------------------|
 E|8---------------------------5-6|8------------------------------|

Big Barn Bed bass tab

Paul McCartney bass tabs for Big barn bed (Ver. 2) "Big Barn Bed" is the opening track of the "Red Rose Speedway" album from 1973.

Other versions of Big Barn Bed

Other alternative guitar chords and tabs for the song Big barn bed by Paul McCartney
Big barn bedBass tabs