Guitar Tabs Explorer
Paul McCartney bass tabs for Back in brazil

Back In Brazil bass tab by Paul McCartney

Paul McCartney bass tabs for Back in brazil

Bass tabs

Tuning: Standard (E A D G)

Key: Dm

Difficulty: Advanced
Chorus: 00:31
G|--------------------|--------------------|
D|--------3-----------|--------------------|
A|5---------------5---|--------------------|
E|--------------------|5-------5-----------|

G|--------------------|--------------------|
D|--------3-----------|--------------------|
A|5---------------5---|--------------------|
E|--------------------|5-------5p3---0-----|

G|--------------------|--------------------|
D|--------------------|------/-7-----------|
A|5-------5-------5---|--------------7-\---|
E|--------------------|5-------------------|

G|--------------------|--------------------|
D|--------------------|--------------------|
A|5-------5-------5---|------------3-------|
E|--------------------|5-------5-------5---|

G|--------------------|--------------------|
D|--------------------|--------------------|
A|5-------5-----------|--------------------|
E|--------------------|5-------5-----------|

G|--------------------|--------------------|
D|--------------------|------------7p5-----|
A|5-------5-----------|----------------0---|
E|--------------------|5-------5-----------|
Verse:
G|--------------------|----------------|
D|--------------------|----------------|
A|1-------1-----------|1---------------|
E|--------------------|--------1---3---|

G|--------------------|----------------|
D|--------------------|----5-----------|
A|1-------1-------3-/-|8-------8---5-\-|
E|--------------------|----------------|

G|--------------------|----------------|
D|--------------------|----------------|
A|3-------3-----------|3-----------1---|
E|----------------3---|--------3-------|

G|--------------------|----------------|
D|--------------------|----------------|
A|3-------3-----------|1---3---1-------|
E|----------------3---|------------3---|

G|--------------------|----------------|
D|--------------------|----------------|
A|--------------------|--------4---7---|
E|5-------5-----------|5---5-----------|

G|--------------------|----------------|
D|7-------------------|----------------|
A|--------------------|--------4---7---|
E|--------5-------5-5-|5-----5---------|

G|--------------------|----------------|
D|--------------------|----------------|
A|--------------------|4---4---5---5---|
E|5-------5-----------|----------------|

G|--------------------|----------------|
D|--------------------|----------------|
A|--------------------|2-------4-------|
E|5-------5-----------|----------------|


Chorus:
G|--------------------|--------------------|
D|--------3-----------|--------------------|
A|5---------------5---|--------------------|
E|--------------------|5-------5-----------|

G|--------------------|--------------------|
D|--------3-----------|--------------------|
A|5---------------5---|--------------------|
E|--------------------|5-------5-----5-----|

G|--------------------|--------------------|
D|--------------------|--------------------|
A|--------------------|--------------------|
E|--------------------|--------------------|


Instrumental:
G|--------8-----------|--------------------|
D|--------------------|--------------------|
A|6-------------------|6-------------------|
E|--------------------|--------------------|

G|--------8-----------|8-------------------|
D|--------------------|--------------------|
A|6-------------------|----------------6-\-|
E|--------------------|--------------------|

G|--------5-----------|--------------------|
D|--------------------|--------------------|
A|3-------------------|3-----------3---3---|
E|--------------------|--------------------|

G|--------5-----------|5/7-----------------|
D|--------------------|--------------------|
A|3-------------------|--------------------|
E|--------------------|--------------------|

G|--------8-------8---|8-------------------|
D|--------------------|--------------------|
A|6-------------------|------------6---6-\-|
E|--------------------|--------------------|

G|--------5-------5---|----5---------------|
D|--------------------|5---------------5---|
A|3-------------------|--------------------|
E|--------------------|--------------------|

G|5-------------------|--------------------|
D|--------5-------2---|--------------------|
A|--------------------|3---3---3-----------|
E|--------------------|--------------------|

Interlude:
G|--------------------|--------------------|
D|--------------------|--------------------|
A|6-------------------|6-------------------|
E|--------------------|--------------------|

G|--------------------|--------------------|
D|--------------------|--------------------|
A|3-------------------|3-------------------|
E|--------------------|--------------------|

G|--------------------|------------------------------|
D|--------------------|------------------------------| *For this one listen
A|6-------------------|6-----------------------------| to the song to get it
E|--------------------|--------5-5---5---5---5-5-----|

G|--------------------|
D|--------------------| *
A|--------------------|
E|5---3-------0-------|


Chorus:
G|--------------------|--------------------|
D|--------3-----------|--------------------|
A|5---------------5---|--------------------|
E|--------------------|5-------5-----5-----|

G|--------------------|--------------------|
D|--------3-----------|--------------------|
A|5---------------5---|--------------------|
E|--------------------|5-------5-----5-----|

G|--------------------|--------------------|
D|--------------------|7-------7-----7-\---|
A|5-------5-----------|--------------------|
E|--------------------|--------------------|

G|--------------------|--------------------|
D|--------------------|--------------------|
A|5-------5-----------|------------3---4---|
E|--------------------|5-------5-----------|

G|--------------------|--------------------|
D|--------------------|--------------------|
A|5-------5-----------|--------------------|
E|--------------------|5-------5-----5-----|

G|--------------------|--------------------|
D|--------------------|--------------------|
A|5-------5-------5---|------------3---4---|
E|--------------------|5-------5-----------|

G|--------------------|--------------------|
D|--------3-----------|--------------------|
A|5---------------5---|--------------------|
E|--------------------|5-------5-----5-----|

G|--------------------|--------------------|
D|--------3-----------|--------------------|
A|5---------------5---|--------------------|
E|--------------------|5-------5-3-----0---|

G|--------------------|--------------------|
D|--------------------|--------------------|
A|5-------5-----------|--------------------|
E|--------------------|5-------5-----5-----|

G|--------------------|--------------------|
D|--------------------|--------------------|
A|5-------5-----------|--------------------|
E|--------------------|5---3---1---0-------|

G|--------------------|--------------------|
D|--------------------|--------------------|
A|5-------5-----------|------------3---4---|
E|--------------------|5-------5-----------|

G|--------------------|--------------------|
D|--------------------|--------------------|
A|5-------5-------5---|------------5---3---|
E|--------------------|5-------5-----------|


Verse:
G|--------------------|----------------|
D|--------------------|----------------|
A|1-------1-----------|1---------------|
E|--------------------|------0-1---3---|

G|--------------------|----------------|
D|--------------------|----------------|
A|1-------1-----------|1-----1---------|
E|--------------------|--------3---1---|

G|--------------------|----------------|
D|--------------------|----------------|
A|3-------3-----------|3-----3---------|
E|--------------------|--------1---3---|

G|--------------------|----------------|
D|--------------------|----------------|
A|3-------3-----------|3------3--------|
E|----------------3---|-------------6--|

G|--------------------|----------------|
D|--------------------|----------------|
A|--------------------|----------------|
E|5-------5-----------|5------5-----3--|

G|--------------------|----------------|
D|--------------------|----------------|
A|--------------------|----------------|
E|5-------5-------3---|5------5-----3--|

G|--------------------|----------------|
D|--------------------|----------------|
A|------------------/-|7------7-----7--|
E|5-------5-----------|----------------|

G|--------------------|----------------|
D|7-------7-5---\-----|3-----3-2-------|
A|--------------------|----------------|
E|--------------------|----------------|


Chorus:
G|--------------------|--------------------|
D|--------3-----------|--------------------|
A|5---------------5---|--------------------|
E|--------------------|5-------5-----------|

G|--------------------|--------------------|
D|--------3-----------|--------------------|
A|5---------------5---|--------------------|
E|--------------------|5-------5-----------|

Interlude:
G|--------------------|--------------------|
D|--------------------|--------------------|
A|6-------------------|6-------------------|
E|--------------------|--------------------|

G|--------------------|--------------------|
D|--------------------|--------------------|
A|3-------------------|3-------------------|
E|--------------------|--------------------|

G|--------------------|--------------------|
D|--------------------|--------------------|
A|6-------------------|6-------------------|
E|--------------------|--------------------|


Outro: (Optionnal)
G|--------------------|--------------------|
D|--------------------|--------------------|
A|6---6---6---6---6---|6---6---6---6---6---|
E|--------------------|--------------------|


**************************************************

/ = Slide up
\ = Slide down
p = Pull off

**************************************************
ⓘ Bass guitar tab for 'Back In Brazil' by Paul McCartney, a male rock artist from Liverpool, England. Paul McCartney was born in 1942. Paul McCartney is known for his philosophical rock/pop music.