Log in

One click and you are in

Login with Facebook Login with Google

Why sign up and log in

Guitar Tabs Explorer
Paul McCartney bass tabs for Average person

Bass tabs

Intro:
G|---------------------------------|---------------------------------|
D|---------------------------------|---------------------------------|
A|---------------------------------|---------------------------------|
E|3---3---3-------3---3---3--------|3---3---3-------3---3---3--------|

G|---------------------------------|---------------------------------|
D|---------------------------------|---------------------------------|
A|---------------------------------|---------------------------------|
E|3---3---3-------3---3---3--------|3---3---3-------3---3---3--------|

G|---------------------------------|---------------------------------|
D|---------------------------------|---------------------------------|
A|0---0---0-------0---0---0--------|0---0---0-------0---0---0--------|
E|---------------------------------|---------------------------------|
Chorus:
G|---------------------------------|---------------------------------|
D|------------------------4---4----|---------------------------------|
A|0---------2h4---5---5------------|0---0------2h4---7------4---5----|
E|---------------------------------|---------------------------------|

G|---------------------------------|---------------------------------|
D|---------------------------------|---------------------------------|
A|7---7-----------7---7-------5----|7-----------7---7-------7---\----|
E|--------7---7-----------7--------|---------------------------------|

G|---------------------------------|---------------------------------|
D|------------------------4--------|---------------------------------|
A|0---------2h4---5---5------------|0---------3h4---0-------2--------|
E|---------------------------------|---------------------------------|

G|---------------------------------|---------------------------------|
D|---------------------------------|---------------------------------|
A|3-----------0---3-----------0----|3-----------0---3---3---2--------|
E|--------3---------------3--------|--------3------------------------|

G|---------------------------------|---------------------------------|
D|----------------2---2-h-4---2--/-|4-----/-4------------------------|
A|0---0-----2h4--------------------|----------------0-------2--------|
E|---------------------------------|---------------------------------|

G|---------------------------------|---------------------------------|
D|---------------------------------|---------------------------------|
A|3-----------0---3-----------0----|3-----------0---3---3---2--------|
E|--------3---------------3--------|--------3------------------------|

G|---------------------------------|---------------------------------|
D|----------------2-------2-h-4----|7-------4------------------------|
A|0---0-----2h4--------------------|----------------7-------4--------|
E|---------------------------------|---------------------------------|
Verse 1:
G|---------------------------------|---------------------------------|
D|---------------------------------|---------------------------------|
A|---------------------------------|---------------------------------|
E|5-------4-------2-------0-5------|5-------4-------2-------0--------|

G|---------------------------------|---------------------------------|
D|---------------------------------|---------------------------------|
A|---------------------------------|---------------------------------|
E|5-------4-------2-------0-5------|5-------4-------2-------0--------|

G|---------------------------------|---------------------------------|
D|----------------2-----2h4--------|7-------4------------------------|
A|0---0-----2h4--------------------|----------------5-------4---\----|
E|---------------------------------|---------------------------------|

G|---------------------------------|---------------------------------|
D|----------------2-----2h4--------|7--------------------------------|
A|0---------2h4--------------------|--------4-------5-------4--------|
E|---------------------------------|---------------------------------|

G|----------------7h9-----7--------|---------------------------------|
D|--------7------------------------|7--------------------------------|
A|5---5----------------------------|--------5-------7-------5--------|
E|---------------------------------|---------------------------------|

G|---------------------------------|---------------------------------|
D|----------------2-----2h4--------|7-------4------------------------|
A|0---0-----2h4--------------------|----------------7---7---4---/----|
E|---------------------------------|---------------------------------|

G|---------------------------------|---------------------------------|
D|---------------------------------|---------------------------------|
A|7---------------7---7-------5----|7---------------5---7---7---\----|
E|--------7---------------7--------|--------7------------------------|

G|---------------------------------|---------------------------------|
D|---------------------------------|---------------------------------|
A|0--------------------------------|5--------------------------------|
E|---------------------------------|---------------------------------|

G|---------------------------------|---------------------------------|
D|---------------------------------|---------------------------------|
A|12----------------------\--------|5--------------------------------|
E|---------------------------------|---------------------------------|


Chorus:
G|7---------------6----------------|7--------------------------------|
D|--------7---------------7--------|--------11--\---7---7------------|
A|---------------------------------|------------------------7---\----|
E|---------------------------------|---------------------------------|

G|---------------------------------|--------4------------------------|
D|---------------------------------|---------------------------------|
A|5-------5---5---4-------4---4----|2---------------7-------5--------|
E|---------------------------------|----------------------------4-/--|

G|---------------------------------|--------7---------------6--------|
D|---------------------------------|---------------------------------|
A|----------2h4---7-------6--------|5---------------4----------------|
E|5--------------------------------|---------------------------------|

G|---------------------------------|---------------------------------|
D|---------------------------------|---------------------------------|
A|------6h7---------------4---7----|5-------5---5---4-------4---3----|
E|7-----------0---5----------------|---------------------------------|

G|---------------------------------|
D|---------------------------------|
A|2---------------7-------9--------|
E|---------------------------------|

G|---------------------------------|---------------------------------|
D|----------------2-----2h4--------|7-------4------------------------|
A|0---0-----2h4--------------------|----------------7-------4--------|
E|---------------------------------|---------------------------------|

G|---------------------------------|---------------------------------|
D|------------------------4--------|----------------2----------------|
A|0---------2h4---5----------------|0---------2h4-----------4---/----|
E|---------------------------------|---------------------------------|

G|---------------------------------|---------------------------------|
D|---------------------------------|---------------------------------|
A|7---------------7---7-------5----|7---7-------7--------------------|
E|--------7---7-----------7--------|------------------------4--------|

G|---------------------------------|---------------------------------|
D|------------------------4---7----|---------------------------------|
A|0---------2h4---5----------------|0---------3h4---0-------2--------|
E|---------------------------------|---------------------------------|

G|---------------------------------|---------------------------------|
D|---------------------------------|---------------------------------|
A|3-----------0---3-----------0----|3-----------0---3-------2--------|
E|--------3---------------3--------|--------3------------------------|

G|---------------------------------|---------------------------------|
D|----------------2---2-h-4---2--/-|4-----/-4------------------------|
A|0---0----2h4---------------------|----------------0-------2--------|
E|---------------------------------|---------------------------------|

G|---------------------------------|---------------------------------|
D|---------------------------------|---------------------------------|
A|3-----------0---3-----------0----|3-----------0---3-------2--------|
E|--------3---------------3--------|--------3------------------------|

G|---------------------------------|---------------------------------|
D|----------------2-----2h4--------|7-------4------------------------|
A|0---------2h4--------------------|----------------7-------4---\----|
E|---------------------------------|---------------------------------|


Verse 2:
G|---------------------------------|---------------------------------|
D|----------------2-----2h4--------|7-------4------------------------|
A|0---0-----2h4--------------------|----------------5-------4---\----|
E|---------------------------------|---------------------------------|

G|---------------------------------|---------------------------------|
D|----------------2-----2h4--------|7-------4---2---0----------------|
A|0---0-----2h4--------------------|------------------------4---\----|
E|---------------------------------|---------------------------------|

G|----------------7h9-----7--------|---------------------------------|
D|--------7------------------------|7--------------------------------|
A|5---5----------------------------|--------5-------7-------5--------|
E|---------------------------------|---------------------------------|

G|---------------------------------|---------------------------------|
D|----------------2-----2h4--------|7-------4------------------------|
A|0---0-----2h4--------------------|----------------7---7---4---/----|
E|---------------------------------|---------------------------------|

G|---------------------------------|---------------------------------|
D|---------------------------------|------------------------6--------|
A|7---------------7-----------5----|7-----------5---7----------------|
E|--------7---------------7--------|--------7------------------------|

G|---------------------------------|---------------------------------|
D|7-----------------------\--------|---------------------------------|
A|---------------------------------|5--------------------------------|
E|---------------------------------|---------------------------------|

G|---------------------------------|---------------------------------|
D|---------------------------------|---------------------------------|
A|12----------------------\--------|5--------------------------------|
E|---------------------------------|---------------------------------|


Chorus:
G|7---------------6----------------|7--------------------------------|
D|--------7---------------7--------|--------11--\---7---7------------|
A|---------------------------------|------------------------7---\----|
E|---------------------------------|---------------------------------|

G|---------------------------------|--------4------------------------|
D|---------------------------------|---------------------------------|
A|5-------5---5---4-------4---4----|2---------------7-------5--------|
E|---------------------------------|----------------------------4-h--|

G|---------------------------------|--------7---------------6--------|
D|---------------------------------|---------------------------------|
A|--------4-------7-------6--------|5---------------4----------------|
E|5--------------------------------|---------------------------------|

G|---------------------------------|---------------------------------|
D|---------------------------------|---------------------------------|
A|------------------------4---7----|5-------5---5---4-------4---3----|
E|7-------0-------5----------------|---------------------------------|

G|---------------------------------|
D|---------------------------------|
A|2-------5---6---7-------7--------|
E|---------------------------------|


Bridge:
G|---------------------------------|---------------------------------|
D|---------------------------------|---------------------------------|
A|8--------------------------------|------------------------\--------|
E|---------------------------------|---------------------------------|

G|---------------------------------|---------------------------------|
D|---------------------------------|---------------------------------|
A|3--------------------------------|---------------------------------|
E|---------------------------------|---------------------------------|

G|---------------------------------|---------------------------------|
D|---------------------------------|---------------------------------|
A|---------------------------------|---------------------------------|
E|3--------------------------------|---------------------------------|

G|---------------------------------|---------------------------------|
D|---------------------------------|---------------------------------|
A|---------------------------------|---------------------------------|
E|1--------------------------------|---------------------------------|

G|---------------------------------|---------------------------------|
D|---------------------------------|---------------------------------|
A|---------------------------------|---------------------------------|
E|0---0---0---0---0---0---0---0----|0---0---0---0---0---0---0---0----|

G|9--------------------------------|---------------------------------|
D|---------------------------------|---------------------------------|
A|---------------------------------|---------------------------------|
E|---------------------------------|------------------------0--------|

G|---------------------------------|---------------------------------|
D|---------------------------------|---------------------------------|
A|7-------7-------7-------7--------|7-------7-------7-------7--------|
E|---------------------------------|---------------------------------|

G|--------9------------------------|---------------------------------|
D|---------------------------------|---------------------------------|
A|----7----------------------------|---------------------------------|
E|0-----------0---0---0---0---0----|0--------------------------------|


Verse 3:
G|---------------------------------|---------------------------------|
D|---------------------------------|---------------------------------|
A|---------------------------------|----------------5-------4---\----|
E|---------------------------------|---------------------------------|

G|---------------------------------|---------------------------------|
D|----------------2-----2h4--------|7--------------------------------|
A|0---------2h4--------------------|--------4-------5-------4--------|
E|---------------------------------|---------------------------------|

G|----------------7h9-----7--------|---------------------------------|
D|--------7------------------------|7--------------------------------|
A|5---5----------------------------|--------5-------7-------5---\----|
E|---------------------------------|---------------------------------|

G|---------------------------------|---------------------------------|
D|----------------2-----2h4--------|7--------------------------------|
A|0-------4------------------------|--------4-------5-------6--------|
E|---------------------------------|---------------------------------|

G|---------------------------------|---------------------------------|
D|---------------------------------|---------------------------------|
A|7-----------5---7-----------5----|7---------------7-------11-------|
E|--------7---------------7--------|--------7------------------------|

G|---------------------------------|---------------------------------|
D|---------------------------------|---------------------------------|
A|12----------------------\--------|5--------------------------------|
E|---------------------------------|---------------------------------|

G|---------------------------------|---------------------------------|
D|7--------------------------------|---------------------------------|
A|---------------------------------|5--------------------------------|
E|---------------------------------|---------------------------------|


Chorus:
G|7---------------6----------------|7--------------------------------|
D|--------7---------------7--------|--------11--\---7---7------------|
A|---------------------------------|------------------------7---\----|
E|---------------------------------|---------------------------------|

G|--------7------------------------|---------------------------------|
D|---------------------------------|---------------------------------|
A|5---------------4-------4---3----|2---------------7-------5--------|
E|---------------------------------|----------------------------4-h--|

G|---------------------------------|--------7---------------6---\----|
D|---------------------------------|---------------------------------|
A|--------4-------7-------6--------|5---------------4----------------|
E|5--------------------------------|---------------------------------|

G|4--------------------------------|--------7---------------6--------|
D|--------2------------------------|---------------------------------|
A|------------------------4---7----|5---5-----------4----------------|
E|----------------5----------------|---------------------------------|

G|---------------------------------|
D|---------------------------------|
A|----------------7-------9--------|
E|7--------------------------------|


Solo:
G|---------------------------------|--------7---------------6--------|
D|---------------------------------|---------------------------------|
A|0---------2h4---7-------6--------|5---------------4----------------|
E|---------------------------------|---------------------------------|

G|--------4------------------------|--------7---------------6--------|
D|---------------------------------|---------------------------------|
A|2-----------------------4---7----|5---------------4----------------|
E|----------------5----------------|---------------------------------|

G|--------4------------------------|
D|---------------------------------|
A|2---------------7-------9--------|
E|---------------------------------|


Chorus:
G|---------------------------------|---------------------------------|
D|------------------------4---7----|----------------2---2------------|
A|0---------2h4---5----------------|0---------3h4-----------4--------|
E|---------------------------------|---------------------------------|

G|---------------------------------|---------------------------------|
D|---------------------------------|---------------------------------|
A|7---------------7---7-------5----|7-----------7-----------7---\----|
E|--------7---7-----------7--------|---------------------------------|

G|---------------------------------|---------------------------------|
D|------------------------4---7----|---------------------------------|
A|0---------2h4---5----------------|0---------3h4---0-------2--------|
E|---------------------------------|---------------------------------|

G|---------------------------------|---------------------------------|
D|---------------------------------|---------------------------------|
A|3-----------0---3-----------0----|3-----------0---3-------2--------|
E|--------3---------------3--------|--------3------------------------|

G|---------------------------------|---------------------------------|
D|----------------2---2-h-4---2--/-|4-----/-4------------------------|
A|0---0----2h4---------------------|----------------0-------2--------|
E|---------------------------------|---------------------------------|

G|---------------------------------|---------------------------------|
D|---------------------------------|---------------------------------|
A|3-----------0---3-----------0----|3-----------0---3-------2--------|
E|--------3---------------3--------|--------3------------------------|

G|---------------------------------|---------------------------------|
D|----------------2-----2h4--------|7--------------------------------|
A|0---------2h4--------------------|----------------0-------2--------|
E|---------------------------------|---------------------------------|

G|---------------------------------|---------------------------------|
D|---------------------------------|---------------------------------|
A|3--------------------------------|----------------3-------2--------|
E|---------------------------------|---------------------------------|

G|---------------------------------|---------------------------------|
D|---------------------------------|---------------------------------|
A|0--------------------------------|---------------------------------|
E|---------------------------------|------------------------3--------|

G|---------------------------------|---------------------------------|
D|---------------------------------|---------------------------------|
A|---------------------------------|---------------------------------|
E|1--------------------------------|---------------------------------|

G|---------------------------------|---------------------------------|
D|--------------------4---7---\----|---------------------------------|
A|--------4---5--------------------|---------------------------------|
E|5--------------------------------|5--------------------------------|


************************************

| h Hammer-on
| \ Slide down
| / Slide up
ⓘ Bass guitar tab for 'Average Person' by Paul McCartney, a male rock artist from Liverpool, England. Paul McCartney was born in 1942. Paul McCartney is known for his philosophical rock/pop music.

Almost there ...

Sign in to get your own page with links to favourite songs and more. You are just one click away...

Login with Facebook Login with Google