Log in

One click and you are in

Login with Facebook Login with Google

Why sign up and log in

Guitar Tabs Explorer
Paul McCartney bass tabs for Angry

Bass tabs

Intro :
G|---------------------------------|---------------------------------|
D|---------------------------------|---------------------------------|
A|7---7-----------7---7-------5----|7---7-----------7---7-------5----|
E|------------7-----------7--------|------------7-----------7--------|

G|---------------------------------|---------------------------------|
D|---------------------------------|---------------------------------|
A|7---7-----------7---7-------5----|7---7-----------7---7------------|
E|------------7-----------7--------|------------7-----------7--------|

G|---------------------------------|---------------------------------|
D|---------------------------------|---------------------------------|
A|7--------------------------------|---------------------------------|
E|--------7-------5-------3---0----|---------------------------------|

G|---------------------------------|---------------------------------|
D|---------------------------------|---------------------------------|
A|7--------------------------------|---------------------------------|
E|--------7-------5-------3---0----|---------------------------------|


Chorus :
G|---------------------------------|---------------------------------|
D|---------------------------------|---------------------------------|
A|---------------------------------|---------------------------------|
E|0--------------------------------|---------------------------------|

G|---------------------------------|---------------------------------|
D|---------------------------------|---------------------------------|
A|7---7-----------7---7-------5----|7---7-----------7---7-------5----|
E|------------7-----------7--------|------------7-----------7--------|

G|---------------------------------|---------------------------------|
D|---------------------------------|---------------------------------|
A|7---7-----------7---7-------5----|7---7-----------7---7-------5----|
E|------------7-----------7--------|------------7-----------7--------|

G|---------------------------------|---------------------------------|
D|---------------------------------|---------------------------------|
A|7---7---5-------3---3---2--------|---------------------------------|
E|---------------------------------|5---5---3-------2-------1--------|

G|---------------------------------|---------------------------------|
D|---------------------------------|---------------------------------|
A|--------7-------7---7------------|7---7-------5---7---7------------|
E|0---0-------7---------------7----|--------7-------------------7----|

G|---------------------------------|---------------------------------|
D|---------------------------------|---------------------------------|
A|7---7-------5---7---7-------5----|7---7-------5---7---7------------|
E|--------7---------------7--------|--------7-------------------7----|

G|---------------------------------|---------------------------------|
D|---------------------------------|---------------------------------|
A|7---7-------5---7---7------------|7---7-------5---7---7------------|
E|--------7-------------------7----|--------7-------------------7----|

G|---------------------------------|---------------------------------|
D|---------------------------------|---------------------------------|
A|7---7-------5---7---7-------5----|7---7-------5---7---7-------5----|
E|--------7---------------7--------|--------7---------------7--------|

Interlude :
G|---------------------------------|---------------------------------|
D|---------------------------------|---------------------------------|
A|7---7-------5---7---7------------|7---7-------5---7---7------------|
E|--------7-------------------7----|--------7-------------------7----|

G|---------------------------------|---------------------------------|
D|---------------------------------|---------------------------------|
A|7---7-------5---7---7-------5----|7---7-------5---7---7------------|
E|--------7---------------7--------|--------7-------------------7----|

Verse 1 :
G|---------------------------------|---------------------------------|
D|---------------------------------|---------------------------------|
A|7---7-------5---7---7------------|7---7-------5---7---7------------|
E|--------7-------------------7----|--------7-------------------7----|

G|---------------------------------|---------------------------------|
D|---------------------------------|---------------------------------|
A|7---7-------5---7---7-------5----|7---7---7---7-----------5--------|
E|--------7---------------7--------|----------------7---7------------|

G|---------------------------------|---------------------------------|
D|---------------------------------|---------------------------------|
A|7---7-------5---7---7------------|7---7-------5---7---7------------|
E|--------7-------------------7----|--------7-------------------7----|

G|---------------------------------|---------------------------------|
D|---------------------------------|---------------------------------|
A|7---7-------5---7---7-------5----|7---7-------5---7---7---6--------|
E|--------7---------------7--------|--------7------------------------|

G|---------------------------------|---------------------------------|
D|---------------------------------|---------------------------------|
A|7---7-------5---7----------------|7---7-------5---7----------------|
E|--------7-----------0------------|--------7-----------0------------|

G|---------------------------------|---------------------------------|
D|---------------------------------|---------------------------------|
A|7---7-------5---7---7------------|5-------6-------7---7-------5----|
E|--------7---------------8--------|------------------------7--------|

G|---------------------------------|---------------------------------|
D|---------------------------------|---------------------------------|
A|7---7-----------7---7------------|7---7-------5---7---7------------|
E|------------7---------------7----|--------7-------------------7----|

G|---------------------------------|---------------|
D|---------------------------------|---------------| *3 instead of 8
A|7---7-----------7---7---5--------|4-------2------|
E|------------7--------------------|---------------|


Chorus :
G|---------------------------------|---------------------------------|
D|---------------------------------|---------------------------------|
A|---------------------------------|---------------------------------|
E|0--------------------------------|---------------------------------|

G|---------------------------------|---------------------------------|
D|---------------------------------|---------------------------------|
A|7---7-----------7---7------------|5-------6-------7---7-------5----|
E|------------7-----------8--------|------------------------7--------|

G|---------------------------------|---------------------------------|
D|---------------------------------|---------------------------------|
A|7---7-----------7---7-------5----|7---7-----------7---7-------5----|
E|------------7-----------7--------|------------7-----------7--------|

G|---------------------------------|---------------------------------|
D|---------------------------------|---------------------------------|
A|7---7-------5---7---7-------5----|7---7-------5---7---7------------|
E|--------7---------------7--------|--------7-------------------7----|

G|---------------------------------|---------------------------------|
D|---------------------------------|---------------------------------|
A|7---7-------5---7---7------------|7---7-------5---7---7-------5----|
E|--------7-------------------7----|--------7---------------7--------|

G|---------------------------------|---------------------------------|
D|---------------------------------|---------------------------------|
A|7---7-------5---7---7---5--------|7---7-------5---7---7------------|
E|--------7------------------------|--------7-------------------7----|

G|---------------------------------|---------------------------------|
D|---------------------------------|---------------------------------|
A|7---7-------5---7---7------------|7---7---5---5---4---4------------|
E|--------7-------------------7----|------------------------7---7----|

G|---------------------------------|-------|
D|---------------------------------|-------|*2 instead of 8
A|---------------------------------|-------|
E|5---5---3-------2-------1--------|0------|


Verse 2 :
G|---------------------------------|---------------------------|
D|---------------------------------|---------------------------|*7 instead of 8
A|7-----------7---7---7-------7----|7-------5---7---7---7------|
E|--------7---------------7--------|----7-------------------7--|

G|---------------------------------|---------------------------------|
D|---------------------------------|---------------------------------|
A|7---7-------5---7---7------------|7---7-------5---7---7-------5----|
E|--------7-------------------7----|--------7---------------7--------|

G|---------------------------------|---------------------------------|
D|---------------------------------|---------------------------------|
A|7---7-------5---7---7------------|7---7-------5---7---7------------|
E|--------7-------------------7----|--------7-------------------7----|

G|---------------------------------|---------------|
D|---------------------------------|---------------|*4 instead of 8
A|7---7-------5---7---7-------5----|7---7----------|
E|--------7---------------7--------|--------7------|


Solo :
G|---------------------------------|---------------------------------|
D|---------------------------------|---------------------------------|
A|---------------------------------|---------------------------------|
E|5-------5---5---5---5---5---5----|5---5---5---5---5---5---5---5----|

G|---------------------------------|---------------------------------|
D|---------------------------------|---------------------------------|
A|---------------------------------|---------------------------------|
E|5---5---5---5---5---5---5---5----|5---5---5---5---5---5---5---4----|

G|---------------------------------|---------------------------------|
D|---------------------------------|---------------------------------|
A|---------------------------------|---------------------------------|
E|5---5---5---5---5---5---5---5----|5---5---5---5---5---5---5---5----|

G|---------------------------------|---------------------------------|
D|---------------------------------|---------------------------------|
A|---------------------------------|---------------------------------|
E|5-------7-------0-0--------------|---------------------------------|

G|---------------------------------|---------------------------------|
D|---------------------------------|---------------------------------|
A|---------------------------------|---------------------------------|
E|---------------------------------|---------------------------------|

G|---------------------------------|---------------------------------|
D|---------------------------------|---------------------------------|
A|----------------7---7------------|7---7-----------7---7------------|
E|----------------------------7----|------------7---------------7----|

G|---------------------------------|---------------------------------|
D|---------------------------------|---------------------------------|
A|7---7-------5---7---7------------|7---7-----------7---7------------|
E|--------7-------------------7----|------------7---------------7----|

G|---------------------------------|---------------------------------|
D|---------------------------------|---------------------------------|
A|7---7-------5---7----------------|---------------------------------|
E|--------7---------------5--------|3---0----------------------------|

G|---------------------------------|---------------|
D|---------------------------------|---------------|*4 instead of 8
A|----------------7----------------|---------------|
E|------------------------5--------|3---0----------|

G|---------------------------------|
D|---------------------------------|
A|---------------------------------|
E|---------------------------------|


Verse 3 :
G|---------------------------------|---------------------------------|
D|---------------------------------|---------------------------------|
A|7---7-----------7---7------------|7---7-----------7---7-------5----|
E|------------7---------------7----|------------7-----------7--------|

G|---------------------------------|---------------------------------|
D|---------------------------------|---------------------------------|
A|7---7-----------7---7------------|7---7-------5---7---7-------5----|
E|------------7---------------7----|--------7---------------7--------|

G|---------------------------------|---------------------------------|
D|---------------------------------|---------------------------------|
A|7---7-----------7---7------------|7---7-----------7---7-------5----|
E|------------7---------------7----|------------7-----------7--------|

G|---------------------------------|---------------------------------|
D|---------------------------------|---------------------------------|
A|7---7-----------7---7------------|7---7---5-------4----------------|
E|------------7---------------7----|------------------------7--------|

G|---------------------------------|---------------------------------|
D|---------------------------------|---------------------------------|
A|7---7-----------7-----------7----|----7-------5---7-----------7----|
E|------------7-------0------------|--------7-----------0------------|

G|---------------------------------|---------------------------------|
D|---------------------------------|---------------------------------|
A|----7-------5---7---7-------5----|7---7---5-------4---4------------|
E|--------7---------------7--------|------------------------7--------|

G|---------------------------------|---------------------------------|
D|---------------------------------|---------------------------------|
A|7---7-----------7---7------------|7---7-----------7---7-------5----|
E|------------7---------------7----|------------7-----------7--------|

G|---------------------------------|---------------------------------|
D|---------------------------------|---------------------------------|
A|7---7-----------7---7-------5----|7---7---5-------4---4------------|
E|------------7-----------7--------|------------------------7--------|


Chorus :
G|---------------------------------|9---\----------------------------|
D|---------------------------------|---------------------------------|
A|---------------------------------|---------------------------------|
E|0--------------------------------|---------------------------------|

G|---------------------------------|---------------------------------|
D|---------------------------------|---------------------------------|
A|7---7-------5---7---7------------|7---7-------5---7---7------------|
E|--------7-------------------7----|--------7-------------------7----|

G|---------------------------------|---------------------------------|
D|---------------------------------|---------------------------------|
A|7---7-------5---7---7------------|7---7-------5---7---7-------5----|
E|--------7-------------------7----|--------7---------------7--------|

G|---------------------------------|---------------------------------|
D|---------------------------------|---------------------------------|
A|7---7---5---5---4---4------------|---------------------------------|
E|------------------------7---7----|5---5---3---3---2---2---1---1----|

G|---------------------------------|---------------------------------|
D|---------------------------------|---------------------------------|
A|--------7-------7---7------------|7---7-------5---7---7------------|
E|0-----------7---------------7----|--------7-------------------7----|

G|---------------------------------|---------------------------------|
D|---------------------------------|---------------------------------|
A|7---7-----------7---7------------|7---7-------5---7---7------------|
E|------------7---------------7----|--------7-------------------7----|

G|---------------------------------|---------------------------------|
D|---------------------------------|---------------------------------|
A|7---7-----------7---7------------|7---7-------5---7---7------------|
E|------------7---------------7----|--------7-------------------7----|

G|---------------------------------|---------------------------------|
D|---------------------------------|---------------------------------|
A|7---7-----------7---7------------|7---7---5-------4----------------|
E|------------7---------------7----|------------------------7--------|

G|---------------------------------|---------------------------------|
D|---------------------------------|---------------------------------|
A|------------5---7---7------------|7---7-------5---7---7-------5----|
E|0---0---7-------------------7----|--------7---------------7--------|

G|---------------------------------|---------------------------------|
D|---------------------------------|---------------------------------|
A|7---7-------5---7---7------------|7---7-------5---7---7-------5----|
E|--------7-------------------7----|--------7---------------7--------|

G|---------------------------------|---------------------------------|
D|---------------------------------|---------------------------------|
A|7---7-------5---7---7------------|7---7-------5---7---7------------|
E|--------7-------------------7----|--------7-------------------7----|


Outro :
G|---------------------------------|---------------------------------|
D|---------------------------------|---------------------------------|
A|7---7-------5---7---7-------5----|7---7-----------5-------6--------|
E|--------7---------------7--------|--------7------------------------|

G|---------------------------------|---------------------------------|
D|---------------------------------|---------------------------------|
A|7---7-------5---7---7-------5----|7---7-------5---7---7-------5----|
E|--------7---------------7--------|--------7---------------7--------|

G|---------------------------------|---------------------------------|
D|---------------------------------|---------------------------------|
A|7---7-------5---7---7-------5----|7---7---5---5---4---4---3---3----|
E|--------7---------------7--------|---------------------------------|

G|---------------------------------|---------------------------------|
D|---------------------------------|---------------------------------|
A|7---7-------5---7---7-------5----|7---7-------5---7---7-------5----|
E|--------7---------------7--------|--------7---------------7--------|

Crescendo :
G|---------------------------------|---------------------------------|
D|---------------------------------|---------------------------------|
A|7--------------------------------|---------------------------------|
E|--------7---\---0-------4--------|5--------------------------------|


***********************************

\ = Slide down

Almost there ...

Sign in to get your own page with links to favourite songs and more. You are just one click away...

Login with Facebook Login with Google